  0
SECTION
  2
HEADER
  9
$ACADVER
  1
AC1014
  9
$ACADMAINTVER
 70
     0
  9
$DWGCODEPAGE
  3
DOS932
  9
$INSBASE
 10
0.0
 20
0.0
 30
0.0
  9
$EXTMIN
 10
0.0
 20
0.0
 30
0.0
  9
$EXTMAX
 10
210.0
 20
297.0
 30
0.0
  9
$LIMMIN
 10
0.0
 20
0.0
  9
$LIMMAX
 10
210.0
 20
297.0
  9
$ORTHOMODE
 70
     0
  9
$REGENMODE
 70
     1
  9
$FILLMODE
 70
     1
  9
$QTEXTMODE
 70
     0
  9
$MIRRTEXT
 70
     1
  9
$DRAGMODE
 70
     2
  9
$LTSCALE
 40
0.25
  9
$OSMODE
 70
     0
  9
$ATTMODE
 70
     1
  9
$TEXTSIZE
 40
5.0
  9
$TRACEWID
 40
0.05
  9
$TEXTSTYLE
  7
STANDARD
  9
$CLAYER
  8
0
  9
$CELTYPE
  6
CONTINUOUS
  9
$CECOLOR
 62
   256
  9
$CELTSCALE
 40
1.0
  9
$DELOBJ
 70
     1
  9
$DISPSILH
 70
     0
  9
$DIMSCALE
 40
1.0
  9
$DIMASZ
 40
4.0
  9
$DIMEXO
 40
2.0
  9
$DIMDLI
 40
10.0
  9
$DIMRND
 40
0.0
  9
$DIMDLE
 40
0.0
  9
$DIMEXE
 40
2.0
  9
$DIMTP
 40
0.0
  9
$DIMTM
 40
0.0
  9
$DIMTXT
 40
4.0
  9
$DIMCEN
 40
0.09
  9
$DIMTSZ
 40
0.0
  9
$DIMTOL
 70
     0
  9
$DIMLIM
 70
     0
  9
$DIMTIH
 70
     0
  9
$DIMTOH
 70
     0
  9
$DIMSE1
 70
     0
  9
$DIMSE2
 70
     0
  9
$DIMTAD
 70
     3
  9
$DIMZIN
 70
     0
  9
$DIMBLK
  1

  9
$DIMASO
 70
     1
  9
$DIMSHO
 70
     1
  9
$DIMPOST
  1

  9
$DIMAPOST
  1

  9
$DIMALT
 70
     0
  9
$DIMALTD
 70
     2
  9
$DIMALTF
 40
25.4
  9
$DIMLFAC
 40
1.0
  9
$DIMTOFL
 70
     1
  9
$DIMTVP
 40
0.7
  9
$DIMTIX
 70
     0
  9
$DIMSOXD
 70
     0
  9
$DIMSAH
 70
     0
  9
$DIMBLK1
  1

  9
$DIMBLK2
  1

  9
$DIMSTYLE
  2
STANDARD
  9
$DIMCLRD
 70
     0
  9
$DIMCLRE
 70
     0
  9
$DIMCLRT
 70
     0
  9
$DIMTFAC
 40
0.5
  9
$DIMGAP
 40
0.0
  9
$DIMJUST
 70
     0
  9
$DIMSD1
 70
     0
  9
$DIMSD2
 70
     0
  9
$DIMTOLJ
 70
     1
  9
$DIMTZIN
 70
     0
  9
$DIMALTZ
 70
     0
  9
$DIMALTTZ
 70
     0
  9
$DIMFIT
 70
     3
  9
$DIMUPT
 70
     0
  9
$DIMUNIT
 70
     2
  9
$DIMDEC
 70
     2
  9
$DIMTDEC
 70
     4
  9
$DIMALTU
 70
     2
  9
$DIMALTTD
 70
     2
  9
$DIMTXSTY
  7
STANDARD
  9
$DIMAUNIT
 70
     0
  9
$LUNITS
 70
     2
  9
$LUPREC
 70
     4
  9
$SKETCHINC
 40
0.1
  9
$FILLETRAD
 40
0.0
  9
$AUNITS
 70
     0
  9
$AUPREC
 70
     0
  9
$MENU
  1
acad
  9
$ELEVATION
 40
0.0
  9
$PELEVATION
 40
0.0
  9
$THICKNESS
 40
0.0
  9
$LIMCHECK
 70
     0
  9
$BLIPMODE
 70
     1
  9
$CHAMFERA
 40
0.0
  9
$CHAMFERB
 40
0.0
  9
$CHAMFERC
 40
0.0
  9
$CHAMFERD
 40
0.0
  9
$SKPOLY
 70
     0
  9
$TDCREATE
 40
2453564.304293981
  9
$TDUPDATE
 40
2453564.304293981
  9
$TDINDWG
 40
0.0000000000
  9
$TDUSRTIMER
 40
0.0000000000
  9
$USRTIMER
 70
     1
  9
$ANGBASE
 50
0.0
  9
$ANGDIR
 70
     0
  9
$PDMODE
 70
     0
  9
$PDSIZE
 40
0.0
  9
$PLINEWID
 40
0.0
  9
$COORDS
 70
     0
  9
$SPLFRAME
 70
     0
  9
$SPLINETYPE
 70
     6
  9
$SPLINESEGS
 70
     8
  9
$ATTDIA
 70
     0
  9
$ATTREQ
 70
     1
  9
$HANDLING
 70
     1
  9
$HANDSEED
  5
D0
  9
$SURFTAB1
 70
     6
  9
$SURFTAB2
 70
     6
  9
$SURFTYPE
 70
     6
  9
$SURFU
 70
     6
  9
$SURFV
 70
     6
  9
$UCSNAME
  2

  9
$UCSORG
 10
0.0
 20
0.0
 30
0.0
  9
$UCSXDIR
 10
1.0
 20
0.0
 30
0.0
  9
$UCSYDIR
 10
0.0
 20
1.0
 30
0.0
  9
$PUCSNAME
  2

  9
$PUCSORG
 10
0.0
 20
0.0
 30
0.0
  9
$PUCSXDIR
 10
1.0
 20
0.0
 30
0.0
  9
$PUCSYDIR
 10
0.0
 20
1.0
 30
0.0
  9
$USERI1
 70
     0
  9
$USERI2
 70
     0
  9
$USERI3
 70
     0
  9
$USERI4
 70
     0
  9
$USERI5
 70
     0
  9
$USERR1
 40
0.0
  9
$USERR2
 40
0.0
  9
$USERR3
 40
0.0
  9
$USERR4
 40
0.0
  9
$USERR5
 40
0.0
  9
$WORLDVIEW
 70
     1
  9
$SHADEDGE
 70
     3
  9
$SHADEDIF
 70
    70
  9
$TILEMODE
 70
     1
  9
$MAXACTVP
 70
    16
  9
$PINSBASE
 10
0.0
 20
0.0
 30
0.0
  9
$PLIMCHECK
 70
     0
  9
$PEXTMIN
 10
0.0
 20
0.0
 30
0.0
  9
$PEXTMAX
 10
210.0
 20
297.0
 30
0.0
  9
$PLIMMIN
 10
0.0
 20
0.0
  9
$PLIMMAX
 10
210.0
 20
297.0
  9
$UNITMODE
 70
     0
  9
$VISRETAIN
 70
     0
  9
$PLINEGEN
 70
     1
  9
$PSLTSCALE
 70
     0
  9
$TREEDEPTH
 70
  3020
  9
$PICKSTYLE
 70
     1
  9
$CMLSTYLE
  2
STANDARD
  9
$CMLJUST
 70
     0
  9
$CMLSCALE
 40
1.0
  9
$PROXYGRAPHICS
 70
     0
  9
$MEASUREMENT
 70
     0
  0
ENDSEC
  0
SECTION
  2
CLASSES
  0
CLASS
  1
LWPOLYLINE
  2
AcDbPolyline
  3
"AutoCAD"
 90
        0
280
     0
281
     1
  0
CLASS
  1
IMAGE
  2
AcDbRasterImage
  3
ISM
 90
      127
280
     0
281
     1
  0
CLASS
  1
OLE2FRAME
  2
AcDbOle2Frame
  3
""
 90
        0
280
     0
281
     1
  0
CLASS
  1
HATCH
  2
AcDbHatch
  3
"ACAD_SEDONA"
 90
        0
280
     0
281
     1
  0
CLASS
  1
DICTIONARYVAR
  2
AcDbDictionaryVar
  3
"AutoCAD"
 90
        0
280
     0
281
     0
  0
CLASS
  1
RASTERVARIABLES
  2
AcDbRasterVariables
  3
ISM
 90
        0
280
     0
281
     0
  0
CLASS
  1
IMAGEDEF
  2
AcDbRasterImageDef
  3
ISM
 90
        0
280
     0
281
     0
  0
CLASS
  1
IMAGEDEF_REACTOR
  2
AcDbRasterImageDefReactor
  3
ISM
 90
        1
280
     0
281
     0
  0
CLASS
  1
IDBUFFER
  2
AcDbIdBuffer
  3
"Acad"
 90
        0
280
     0
281
     0
  0
CLASS
  1
SPATIAL_FILTER
  2
AcDbSpatialFilter
  3
"Acad"
 90
        0
280
     0
281
     0
  0
CLASS
  1
XRECORD
  2
AcDbXrecord
  3
"<Built In>"
 90
        0
280
     0
281
     0
  0
CLASS
  1
SORTENTSTABLE
  2
AcDbSortentsTable
  3
"AutoCAD"
 90
        0
280
     0
281
     0
  0
CLASS
  1
LAYER_INDEX
  2
AcDbLayerIndex
  3
"Acad"
 90
        0
280
     0
281
     0
  0
CLASS
  1
SPATIAL_INDEX
  2
AcDbSpatialIndex
  3
"Acad"
 90
        0
280
     0
281
     0
  0
CLASS
  1
OBJECT_PTR
  2
CAseDLPNTableRecord
  3
"ASE-LPNTableRecord"
 90
        1
280
     0
281
     0
  0
CLASS
  1
LAYOUT
  2
AcDbLayout
  3
"AutoCAD 2000"
 90
        1
280
     0
281
     0
  0
CLASS
  1
PLOTSETTINGS
  2
AcDbPlotSettings
  3
"AutoCAD 2000"
 90
        1
280
     0
281
     0
  0
CLASS
  1
ACDBDICTIONARYWDFLT
  2
AcDbDictionaryWithDefault
  3
"AutoCAD 2000"
 90
        1
280
     0
281
     0
  0
CLASS
  1
ACDBPLACEHOLDER
  2
AcDbPlaceHolder
  3
"AutoCAD 2000"
 90
        1
280
     0
281
     0
  0
CLASS
  1
VBA_PROJECT
  2
AcDbVbaProject
  3
"acadvba"
 90
        1
280
     0
281
     0
  0
CLASS
  1
WIPEOUT
  2
AcDbWipeout
  3
WipeOut|AutoCAD Express Tool|expresstools@autodesk.com
 90
      127
280
     0
281
     1
  0
CLASS
  1
WIPEOUTVARIABLES
  2
AcDbWipeoutVariables
  3
WipeOut|AutoCAD Express Tool|expresstools@autodesk.com
 90
        0
280
     0
281
     0
  0
CLASS
  1
RTEXT
  2
RText
  3
RText|AutoCAD Express Tool|expresstools@autodesk.com
 90
        0
280
     0
281
     1
  0
CLASS
  1
ARCALIGNEDTEXT
  2
AcDbArcAlignedText
  3
ATEXT|AutoCAD Express Tool|expresstools@autodesk.com
 90
        0
280
     0
281
     1
  0
ENDSEC
  0
SECTION
  2
TABLES
  0
TABLE
  2
VPORT
  5
7
100
AcDbSymbolTable
 70
     1
  0
VPORT
  5
15
100
AcDbSymbolTableRecord
100
AcDbViewportTableRecord
  2
*ACTIVE
 70
     0
 10
0.0
 20
0.0
 11
1.0
 21
1.0
 12
6.591288
 22
4.579184
 13
0.0
 23
0.0
 14
1.0
 24
1.0
 15
0.0
 25
0.0
 16
0.0
 26
0.0
 36
1.0
 17
0.0
 27
0.0
 37
0.0
 40
9.158369
 41
0.688564
 42
50.0
 43
0.0
 44
0.0
 50
0.0
 51
0.0
 71
     0
 72
   100
 73
     1
 74
     1
 75
     0
 76
     0
 77
     0
 78
     0
  0
ENDTAB
  0
TABLE
  2
LTYPE
  5
4
100
AcDbSymbolTable
 70
     9
  0
LTYPE
  5
11
100
AcDbSymbolTableRecord
100
AcDbLinetypeTableRecord
  2
BYBLOCK
 70
    64
  3

 72
    65
 73
     0
 40
0.0
  0
LTYPE
  5
12
100
AcDbSymbolTableRecord
100
AcDbLinetypeTableRecord
  2
BYLAYER
 70
    64
  3

 72
    65
 73
     0
 40
0.0
  0
LTYPE
  5
13
100
AcDbSymbolTableRecord
100
AcDbLinetypeTableRecord
  2
CONTINUOUS
 70
    64
  3
Solid line
 72
    65
 73
     0
 40
0.0
  0
LTYPE
  5
1E
100
AcDbSymbolTableRecord
100
AcDbLinetypeTableRecord
  2
HIDDEN
 70
    64
  3
- - - - - - - - 
 72
    65
 73
     2
 40
12.6
 49
8.4
 74
     0
 49
-4.2
 74
     0
  0
LTYPE
  5
1F
100
AcDbSymbolTableRecord
100
AcDbLinetypeTableRecord
  2
DOT
 70
    64
  3
･ ･ ･ ･ ･ ･ ･ ･ 
 72
    65
 73
     2
 40
8.0
 49
6.0
 74
     0
 49
-2.0
 74
     0
  0
LTYPE
  5
20
100
AcDbSymbolTableRecord
100
AcDbLinetypeTableRecord
  2
CENTER
 70
    64
  3
- ･ - ･ - ･ - ･ 
 72
    65
 73
     4
 40
50.5
 49
30.0
 74
     0
 49
-9.0
 74
     0
 49
2.5
 74
     0
 49
-9.0
 74
     0
  0
LTYPE
  5
21
100
AcDbSymbolTableRecord
100
AcDbLinetypeTableRecord
  2
PHANTOM
 70
    64
  3
- ･･ - ･･ - ･･ - ･･ 
 72
    65
 73
     6
 40
58.0
 49
30.0
 74
     0
 49
-9.0
 74
     0
 49
2.5
 74
     0
 49
-5.0
 74
     0
 49
2.5
 74
     0
 49
-9.0
 74
     0
  0
LTYPE
  5
22
100
AcDbSymbolTableRecord
100
AcDbLinetypeTableRecord
  2
ACAD_ISO06W100
 70
    64
  3
____ ... ____ ... ____
 72
    65
 73
     8
 40
37.5
 49
24.0
 74
     0
 49
-3.0
 74
     0
 49
0.5
 74
     0
 49
-3.0
 74
     0
 49
0.5
 74
     0
 49
-3.0
 74
     0
 49
0.5
 74
     0
 49
-3.0
 74
     0
  0
LTYPE
  5
23
100
AcDbSymbolTableRecord
100
AcDbLinetypeTableRecord
  2
ACAD_ISO14W100
 70
    64
  3
__ . . . __ . . . __ . . . 
 72
    65
 73
     8
 40
25.5
 49
12.0
 74
     0
 49
-3.0
 74
     0
 49
0.5
 74
     0
 49
-3.0
 74
     0
 49
0.5
 74
     0
 49
-3.0
 74
     0
 49
0.5
 74
     0
 49
-3.0
 74
     0
  0
ENDTAB
  0
TABLE
  2
LAYER
  5
2
100
AcDbSymbolTable
 70
    22
  0
LAYER
  5
14
100
AcDbSymbolTableRecord
100
AcDbLayerTableRecord
  2
0
 70
     0
 62
     7
  6
CONTINUOUS
  0
LAYER
  5
24
100
AcDbSymbolTableRecord
100
AcDbLayerTableRecord
  2
レイヤ_1
 70
     0
 62
     7
  6
CONTINUOUS
  0
LAYER
  5
25
100
AcDbSymbolTableRecord
100
AcDbLayerTableRecord
  2
レイヤ_2
 70
     0
 62
   134
  6
CONTINUOUS
  0
LAYER
  5
26
100
AcDbSymbolTableRecord
100
AcDbLayerTableRecord
  2
レイヤ_3
 70
     0
 62
   214
  6
CONTINUOUS
  0
LAYER
  5
27
100
AcDbSymbolTableRecord
100
AcDbLayerTableRecord
  2
レイヤ_4
 70
     0
 62
    54
  6
CONTINUOUS
  0
LAYER
  5
28
100
AcDbSymbolTableRecord
100
AcDbLayerTableRecord
  2
レイヤ_5
 70
     0
 62
    94
  6
CONTINUOUS
  0
LAYER
  5
29
100
AcDbSymbolTableRecord
100
AcDbLayerTableRecord
  2
レイヤ_6
 70
     0
 62
    14
  6
CONTINUOUS
  0
LAYER
  5
2A
100
AcDbSymbolTableRecord
100
AcDbLayerTableRecord
  2
レイヤ_7
 70
     0
 62
     4
  6
CONTINUOUS
  0
LAYER
  5
2B
100
AcDbSymbolTableRecord
100
AcDbLayerTableRecord
  2
レイヤ_8
 70
     0
 62
     6
  6
CONTINUOUS
  0
LAYER
  5
2C
100
AcDbSymbolTableRecord
100
AcDbLayerTableRecord
  2
レイヤ_9
 70
     0
 62
     2
  6
CONTINUOUS
  0
LAYER
  5
2D
100
AcDbSymbolTableRecord
100
AcDbLayerTableRecord
  2
レイヤ10
 70
     0
 62
     3
  6
CONTINUOUS
  0
LAYER
  5
2E
100
AcDbSymbolTableRecord
100
AcDbLayerTableRecord
  2
レイヤ11
 70
     0
 62
   251
  6
CONTINUOUS
  0
LAYER
  5
2F
100
AcDbSymbolTableRecord
100
AcDbLayerTableRecord
  2
レイヤ12
 70
     0
 62
   136
  6
CONTINUOUS
  0
LAYER
  5
30
100
AcDbSymbolTableRecord
100
AcDbLayerTableRecord
  2
レイヤ13
 70
     0
 62
   216
  6
CONTINUOUS
  0
LAYER
  5
31
100
AcDbSymbolTableRecord
100
AcDbLayerTableRecord
  2
レイヤ14
 70
     0
 62
    56
  6
CONTINUOUS
  0
LAYER
  5
32
100
AcDbSymbolTableRecord
100
AcDbLayerTableRecord
  2
レイヤ15
 70
     0
 62
    96
  6
CONTINUOUS
  0
LAYER
  5
33
100
AcDbSymbolTableRecord
100
AcDbLayerTableRecord
  2
レイヤ16
 70
     0
 62
    16
  6
CONTINUOUS
  0
LAYER
  5
34
100
AcDbSymbolTableRecord
100
AcDbLayerTableRecord
  2
レイヤ17
 70
     0
 62
   132
  6
CONTINUOUS
  0
LAYER
  5
35
100
AcDbSymbolTableRecord
100
AcDbLayerTableRecord
  2
レイヤ18
 70
     0
 62
   212
  6
CONTINUOUS
  0
LAYER
  5
36
100
AcDbSymbolTableRecord
100
AcDbLayerTableRecord
  2
レイヤ19
 70
     0
 62
    52
  6
CONTINUOUS
  0
LAYER
  5
37
100
AcDbSymbolTableRecord
100
AcDbLayerTableRecord
  2
レイヤ20
 70
     0
 62
   250
  6
CONTINUOUS
  0
LAYER
  5
38
100
AcDbSymbolTableRecord
100
AcDbLayerTableRecord
  2
その他
 70
     0
 62
     7
  6
CONTINUOUS
  0
ENDTAB
  0
TABLE
  2
STYLE
  5
3
100
AcDbSymbolTable
 70
     2
  0
STYLE
  5
17
100
AcDbSymbolTableRecord
100
AcDbTextStyleTableRecord
  2
STANDARD
 70
     0
 40
0.0
 41
1.0
 50
0.0
 71
     0
 42
0.0
  3
txt
  4
bigfont
  0
STYLE
  5
1D
100
AcDbSymbolTableRecord
100
AcDbTextStyleTableRecord
  2
T_STANDARD
 70
    68
 40
10.0
 41
1.0
 50
0.0
 71
     0
 42
10.0
  3
txt
  4
bigfont
  0
ENDTAB
  0
TABLE
  2
VIEW
  5
5
100
AcDbSymbolTable
 70
     0
  0
ENDTAB
  0
TABLE
  2
UCS
  5
6
100
AcDbSymbolTable
 70
     0
  0
ENDTAB
  0
TABLE
  2
APPID
  5
8
100
AcDbSymbolTable
 70
     1
  0
APPID
  5
16
100
AcDbSymbolTableRecord
100
AcDbRegAppTableRecord
  2
ACAD
 70
     0
  0
ENDTAB
  0
TABLE
  2
DIMSTYLE
  5
9
100
AcDbSymbolTable
 70
     1
  0
DIMSTYLE
105
18
100
AcDbSymbolTableRecord
100
AcDbDimStyleTableRecord
  2
STANDARD
 70
     0
  3

  4

  5

  6

  7

 40
1.0
 41
0.18
 42
0.0625
 43
0.38
 44
0.18
 45
0.0
 46
0.0
 47
0.0
 48
0.0
 71
     0
 72
     0
 73
     1
 74
     1
 75
     0
 76
     0
 77
     0
 78
     0
140
0.18
141
0.09
142
0.0
143
25.4
144
1.0
145
0.0
146
1.0
147
0.09
170
     0
171
     2
172
     0
173
     0
174
     0
175
     0
176
     0
177
     0
178
     0
270
     2
271
     4
272
     4
273
     2
274
     2
275
     0
280
     0
281
     0
282
     0
283
     1
284
     0
285
     0
286
     0
287
     0
288
     0
340
17
  0
ENDTAB
  0
TABLE
  2
BLOCK_RECORD
  5
1
100
AcDbSymbolTable
 70
     4
  0
BLOCK_RECORD
  5
A
100
AcDbSymbolTableRecord
100
AcDbBlockTableRecord
  2
*MODEL_SPACE
  0
BLOCK_RECORD
  5
B
100
AcDbSymbolTableRecord
100
AcDbBlockTableRecord
  2
*PAPER_SPACE
  0
BLOCK_RECORD
  5
39
100
AcDbSymbolTableRecord
100
AcDbBlockTableRecord
  2
*G0
  0
BLOCK_RECORD
  5
3D
100
AcDbSymbolTableRecord
100
AcDbBlockTableRecord
  2
*G1
  0
BLOCK_RECORD
  5
6E
100
AcDbSymbolTableRecord
100
AcDbBlockTableRecord
  2
*G2
  0
BLOCK_RECORD
  5
9F
100
AcDbSymbolTableRecord
100
AcDbBlockTableRecord
  2
*G3
  0
ENDTAB
  0
ENDSEC
  0
SECTION
  2
BLOCKS
  0
BLOCK
  5
D
100
AcDbEntity
  8
0
100
AcDbBlockBegin
  2
*MODEL_SPACE
 70
     0
 10
0.0
 20
0.0
 30
0.0
  3
*MODEL_SPACE
  1

  0
ENDBLK
  5
E
100
AcDbEntity
  8
0
100
AcDbBlockEnd
  0
BLOCK
  5
F
100
AcDbEntity
 67
     1
  8
0
100
AcDbBlockBegin
  2
*PAPER_SPACE
 70
     0
 10
0.0
 20
0.0
 30
0.0
  3
*PAPER_SPACE
  1

  0
ENDBLK
  5
10
100
AcDbEntity
 67
     1
  8
0
100
AcDbBlockEnd
  0
BLOCK
  5
3A
100
AcDbEntity
  8
0
  6
CONTINUOUS
 62
     7
100
AcDbBlockBegin
  2
*G0
 70
     0
 10
0.0
 20
0.0
 30
0.0
  3
*G0
  1

  0
ENDBLK
  5
3B
100
AcDbEntity
  8
0
100
AcDbBlockEnd
  0
BLOCK
  5
3E
100
AcDbEntity
  8
レイヤ_3
  6
CONTINUOUS
 62
   214
100
AcDbBlockBegin
  2
*G1
 70
     0
 10
0.0
 20
0.0
 30
0.0
  3
*G1
  1

  0
LINE
  5
3F
100
AcDbEntity
  8
レイヤ_1
  6
CONTINUOUS
 62
     7
100
AcDbLine
 10
74.890906
 20
139.944574
 30
0.0
 11
117.596004
 21
81.166049
 31
0.0
  0
LINE
  5
40
100
AcDbEntity
  8
レイヤ_1
  6
CONTINUOUS
 62
     7
100
AcDbLine
 10
117.596004
 20
81.166049
 30
0.0
 11
186.694305
 21
103.617448
 31
0.0
  0
LINE
  5
41
100
AcDbEntity
  8
レイヤ_1
  6
CONTINUOUS
 62
     7
100
AcDbLine
 10
186.694305
 20
103.617448
 30
0.0
 11
186.694305
 21
176.271701
 31
0.0
  0
LINE
  5
42
100
AcDbEntity
  8
レイヤ_1
  6
CONTINUOUS
 62
     7
100
AcDbLine
 10
186.694305
 20
176.271701
 30
0.0
 11
117.596004
 21
198.723099
 31
0.0
  0
LINE
  5
43
100
AcDbEntity
  8
レイヤ_1
  6
CONTINUOUS
 62
     7
100
AcDbLine
 10
117.596004
 20
198.723099
 30
0.0
 11
74.890906
 21
139.944574
 31
0.0
  0
ENDBLK
  5
44
100
AcDbEntity
  8
0
100
AcDbBlockEnd
  0
BLOCK
  5
6F
100
AcDbEntity
  8
レイヤ_3
  6
CONTINUOUS
 62
   214
100
AcDbBlockBegin
  2
*G2
 70
     0
 10
0.0
 20
0.0
 30
0.0
  3
*G2
  1

  0
LINE
  5
70
100
AcDbEntity
  8
レイヤ_1
  6
CONTINUOUS
 62
     7
100
AcDbLine
 10
116.881195
 20
206.152798
 30
0.0
 11
74.176097
 21
264.931323
 31
0.0
  0
LINE
  5
71
100
AcDbEntity
  8
レイヤ_1
  6
CONTINUOUS
 62
     7
100
AcDbLine
 10
74.176097
 20
264.931323
 30
0.0
 11
5.077796
 21
242.479924
 31
0.0
  0
LINE
  5
72
100
AcDbEntity
  8
レイヤ_1
  6
CONTINUOUS
 62
     7
100
AcDbLine
 10
5.077796
 20
242.479924
 30
0.0
 11
5.077796
 21
169.825672
 31
0.0
  0
LINE
  5
73
100
AcDbEntity
  8
レイヤ_1
  6
CONTINUOUS
 62
     7
100
AcDbLine
 10
5.077796
 20
169.825672
 30
0.0
 11
74.176097
 21
147.374273
 31
0.0
  0
LINE
  5
74
100
AcDbEntity
  8
レイヤ_1
  6
CONTINUOUS
 62
     7
100
AcDbLine
 10
74.176097
 20
147.374273
 30
0.0
 11
116.881195
 21
206.152798
 31
0.0
  0
ENDBLK
  5
75
100
AcDbEntity
  8
0
100
AcDbBlockEnd
  0
BLOCK
  5
A0
100
AcDbEntity
  8
レイヤ_3
  6
CONTINUOUS
 62
   214
100
AcDbBlockBegin
  2
*G3
 70
     0
 10
0.0
 20
0.0
 30
0.0
  3
*G3
  1

  0
LINE
  5
A1
100
AcDbEntity
  8
レイヤ_1
  6
CONTINUOUS
 62
     7
100
AcDbLine
 10
116.77765
 20
73.546459
 30
0.0
 11
74.072552
 21
132.324984
 31
0.0
  0
LINE
  5
A2
100
AcDbEntity
  8
レイヤ_1
  6
CONTINUOUS
 62
     7
100
AcDbLine
 10
74.072552
 20
132.324984
 30
0.0
 11
4.974251
 21
109.873585
 31
0.0
  0
LINE
  5
A3
100
AcDbEntity
  8
レイヤ_1
  6
CONTINUOUS
 62
     7
100
AcDbLine
 10
4.974251
 20
109.873585
 30
0.0
 11
4.974251
 21
37.219332
 31
0.0
  0
LINE
  5
A4
100
AcDbEntity
  8
レイヤ_1
  6
CONTINUOUS
 62
     7
100
AcDbLine
 10
4.974251
 20
37.219332
 30
0.0
 11
74.072552
 21
14.767934
 31
0.0
  0
LINE
  5
A5
100
AcDbEntity
  8
レイヤ_1
  6
CONTINUOUS
 62
     7
100
AcDbLine
 10
74.072552
 20
14.767934
 30
0.0
 11
116.77765
 21
73.546459
 31
0.0
  0
ENDBLK
  5
A6
100
AcDbEntity
  8
0
100
AcDbBlockEnd
  0
ENDSEC
  0
SECTION
  2
ENTITIES
  0
INSERT
  5
3C
100
AcDbEntity
  8
0
  6
CONTINUOUS
 62
     7
100
AcDbBlockReference
  2
*G0
 10
0.0
 20
0.0
 30
0.0
  0
INSERT
  5
45
100
AcDbEntity
  8
レイヤ_3
  6
CONTINUOUS
 62
   214
100
AcDbBlockReference
  2
*G1
 10
0.0
 20
0.0
 30
0.0
  0
ARC
  5
46
100
AcDbEntity
  8
レイヤ_1
  6
CONTINUOUS
 62
     7
100
AcDbCircle
 10
159.924076
 20
123.067158
 30
0.0
 40
16.97
100
AcDbArc
 50
-25.857869
 51
73.870155
  0
ARC
  5
47
100
AcDbEntity
  8
レイヤ_1
  6
CONTINUOUS
 62
     7
100
AcDbCircle
 10
159.924076
 20
123.067158
 30
0.0
 40
16.97
100
AcDbArc
 50
-145.870155
 51
-46.142131
  0
LINE
  5
48
100
AcDbEntity
  8
レイヤ_1
  6
CONTINUOUS
 62
     7
100
AcDbLine
 10
170.708925
 20
113.668521
 30
0.0
 11
172.195412
 21
115.714495
 31
0.0
  0
LINE
  5
49
100
AcDbEntity
  8
レイヤ_1
  6
CONTINUOUS
 62
     7
100
AcDbLine
 10
171.682111
 20
110.830756
 30
0.0
 11
170.708925
 21
113.668521
 31
0.0
  0
LINE
  5
4A
100
AcDbEntity
  8
レイヤ_1
  6
CONTINUOUS
 62
     7
100
AcDbLine
 10
175.195018
 20
115.665858
 30
0.0
 11
172.195412
 21
115.714495
 31
0.0
  0
ARC
  5
4B
100
AcDbEntity
  8
レイヤ_1
  6
CONTINUOUS
 62
     7
100
AcDbCircle
 10
107.980729
 20
139.944574
 30
0.0
 40
16.97
100
AcDbArc
 50
70.129845
 51
169.857869
  0
ARC
  5
4C
100
AcDbEntity
  8
レイヤ_1
  6
CONTINUOUS
 62
     7
100
AcDbCircle
 10
107.980729
 20
139.944574
 30
0.0
 40
16.97
100
AcDbArc
 50
-169.857869
 51
-70.129845
  0
LINE
  5
4D
100
AcDbEntity
  8
レイヤ_1
  6
CONTINUOUS
 62
     7
100
AcDbLine
 10
93.731223
 20
138.680093
 30
0.0
 11
93.731223
 21
141.209056
 31
0.0
  0
LINE
  5
4E
100
AcDbEntity
  8
レイヤ_1
  6
CONTINUOUS
 62
     7
100
AcDbLine
 10
91.275903
 20
136.956317
 30
0.0
 11
93.731223
 21
138.680093
 31
0.0
  0
LINE
  5
4F
100
AcDbEntity
  8
レイヤ_1
  6
CONTINUOUS
 62
     7
100
AcDbLine
 10
91.275903
 20
142.932832
 30
0.0
 11
93.731223
 21
141.209056
 31
0.0
  0
ARC
  5
50
100
AcDbEntity
  8
レイヤ_1
  6
CONTINUOUS
 62
     7
100
AcDbCircle
 10
127.821322
 20
112.636341
 30
0.0
 40
16.97
100
AcDbArc
 50
-97.857869
 51
1.870155
  0
ARC
  5
51
100
AcDbEntity
  8
レイヤ_1
  6
CONTINUOUS
 62
     7
100
AcDbCircle
 10
127.821322
 20
112.636341
 30
0.0
 40
16.97
100
AcDbArc
 50
142.129845
 51
-118.142131
  0
LINE
  5
52
100
AcDbEntity
  8
レイヤ_1
  6
CONTINUOUS
 62
     7
100
AcDbLine
 10
122.215389
 20
99.475001
 30
0.0
 11
124.620576
 21
98.693509
 31
0.0
  0
LINE
  5
53
100
AcDbEntity
  8
レイヤ_1
  6
CONTINUOUS
 62
     7
100
AcDbLine
 10
119.817245
 20
97.672529
 30
0.0
 11
122.215389
 21
99.475001
 31
0.0
  0
LINE
  5
54
100
AcDbEntity
  8
レイヤ_1
  6
CONTINUOUS
 62
     7
100
AcDbLine
 10
125.501249
 20
95.825684
 30
0.0
 11
124.620576
 21
98.693509
 31
0.0
  0
ARC
  5
55
100
AcDbEntity
  8
レイヤ_1
  6
CONTINUOUS
 62
     7
100
AcDbCircle
 10
127.821322
 20
167.252808
 30
0.0
 40
16.97
100
AcDbArc
 50
118.142131
 51
-142.129845
  0
ARC
  5
56
100
AcDbEntity
  8
レイヤ_1
  6
CONTINUOUS
 62
     7
100
AcDbCircle
 10
127.821322
 20
167.252808
 30
0.0
 40
16.97
100
AcDbArc
 50
-1.870155
 51
97.857869
  0
LINE
  5
57
100
AcDbEntity
  8
レイヤ_1
  6
CONTINUOUS
 62
     7
100
AcDbLine
 10
124.620576
 20
181.19564
 30
0.0
 11
122.215389
 21
180.414147
 31
0.0
  0
LINE
  5
58
100
AcDbEntity
  8
レイヤ_1
  6
CONTINUOUS
 62
     7
100
AcDbLine
 10
125.501249
 20
184.063464
 30
0.0
 11
124.620576
 21
181.19564
 31
0.0
  0
LINE
  5
59
100
AcDbEntity
  8
レイヤ_1
  6
CONTINUOUS
 62
     7
100
AcDbLine
 10
119.817245
 20
182.216619
 30
0.0
 11
122.215389
 21
180.414147
 31
0.0
  0
ARC
  5
5A
100
AcDbEntity
  8
レイヤ_1
  6
CONTINUOUS
 62
     7
100
AcDbCircle
 10
159.924076
 20
156.821991
 30
0.0
 40
16.97
100
AcDbArc
 50
-73.870155
 51
25.857869
  0
ARC
  5
5B
100
AcDbEntity
  8
レイヤ_1
  6
CONTINUOUS
 62
     7
100
AcDbCircle
 10
159.924076
 20
156.821991
 30
0.0
 40
16.97
100
AcDbArc
 50
46.142131
 51
145.870155
  0
LINE
  5
5C
100
AcDbEntity
  8
レイヤ_1
  6
CONTINUOUS
 62
     7
100
AcDbLine
 10
170.708925
 20
166.220627
 30
0.0
 11
172.195412
 21
164.174653
 31
0.0
  0
LINE
  5
5D
100
AcDbEntity
  8
レイヤ_1
  6
CONTINUOUS
 62
     7
100
AcDbLine
 10
171.682111
 20
169.058392
 30
0.0
 11
170.708925
 21
166.220627
 31
0.0
  0
LINE
  5
5E
100
AcDbEntity
  8
レイヤ_1
  6
CONTINUOUS
 62
     7
100
AcDbLine
 10
175.195018
 20
164.22329
 30
0.0
 11
172.195412
 21
164.174653
 31
0.0
  0
LINE
  5
5F
100
AcDbEntity
  8
レイヤ_1
  6
CONTINUOUS
 62
     7
100
AcDbLine
 10
144.056272
 20
160.743085
 30
0.0
 11
145.87685
 21
166.343353
 31
0.0
  0
LINE
  5
60
100
AcDbEntity
  8
レイヤ_1
  6
CONTINUOUS
 62
     7
100
AcDbLine
 10
142.961813
 20
161.099064
 30
0.0
 11
144.782283
 21
166.698999
 31
0.0
  0
ARC
  5
61
100
AcDbEntity
  8
レイヤ_1
  6
CONTINUOUS
 62
     7
100
AcDbCircle
 10
144.41973
 20
163.720987
 30
0.0
 40
3.0
100
AcDbArc
 50
-119.076185
 51
-96.958627
  0
LINE
  5
62
100
AcDbEntity
  8
レイヤ_1
  6
CONTINUOUS
 62
     7
100
AcDbLine
 10
158.749838
 20
140.519127
 30
0.0
 11
164.638598
 21
140.520022
 31
0.0
  0
LINE
  5
63
100
AcDbEntity
  8
レイヤ_1
  6
CONTINUOUS
 62
     7
100
AcDbLine
 10
158.750187
 20
139.368232
 30
0.0
 11
164.638598
 21
139.369126
 31
0.0
  0
ARC
  5
64
100
AcDbEntity
  8
レイヤ_1
  6
CONTINUOUS
 62
     7
100
AcDbCircle
 10
161.694305
 20
139.944574
 30
0.0
 40
3.0
100
AcDbArc
 50
168.958627
 51
-168.923815
  0
LINE
  5
65
100
AcDbEntity
  8
レイヤ_1
  6
CONTINUOUS
 62
     7
100
AcDbLine
 10
144.056272
 20
119.146063
 30
0.0
 11
145.87685
 21
113.545796
 31
0.0
  0
LINE
  5
66
100
AcDbEntity
  8
レイヤ_1
  6
CONTINUOUS
 62
     7
100
AcDbLine
 10
142.961813
 20
118.790084
 30
0.0
 11
144.782283
 21
113.190149
 31
0.0
  0
ARC
  5
67
100
AcDbEntity
  8
レイヤ_1
  6
CONTINUOUS
 62
     7
100
AcDbCircle
 10
144.41973
 20
116.168161
 30
0.0
 40
3.0
100
AcDbArc
 50
96.958627
 51
119.076185
  0
LINE
  5
68
100
AcDbEntity
  8
レイヤ_1
  6
CONTINUOUS
 62
     7
100
AcDbLine
 10
119.188718
 20
126.515834
 30
0.0
 11
114.425137
 21
123.053784
 31
0.0
  0
LINE
  5
69
100
AcDbEntity
  8
レイヤ_1
  6
CONTINUOUS
 62
     7
100
AcDbLine
 10
118.511956
 20
127.446722
 30
0.0
 11
113.748657
 21
123.984878
 31
0.0
  0
ARC
  5
6A
100
AcDbEntity
  8
レイヤ_1
  6
CONTINUOUS
 62
     7
100
AcDbCircle
 10
116.46888
 20
125.249943
 30
0.0
 40
3.0
100
AcDbArc
 50
24.958627
 51
47.076185
  0
LINE
  5
6B
100
AcDbEntity
  8
レイヤ_1
  6
CONTINUOUS
 62
     7
100
AcDbLine
 10
118.51329
 20
152.443667
 30
0.0
 11
113.748657
 21
155.90427
 31
0.0
  0
LINE
  5
6C
100
AcDbEntity
  8
レイヤ_1
  6
CONTINUOUS
 62
     7
100
AcDbLine
 10
119.189487
 20
153.374967
 30
0.0
 11
114.425137
 21
156.835364
 31
0.0
  0
ARC
  5
6D
100
AcDbEntity
  8
レイヤ_1
  6
CONTINUOUS
 62
     7
100
AcDbCircle
 10
116.46888
 20
154.639205
 30
0.0
 40
3.0
100
AcDbArc
 50
-47.041373
 51
-24.923815
  0
INSERT
  5
76
100
AcDbEntity
  8
レイヤ_3
  6
CONTINUOUS
 62
   214
100
AcDbBlockReference
  2
*G2
 10
0.0
 20
0.0
 30
0.0
  0
ARC
  5
77
100
AcDbEntity
  8
レイヤ_1
  6
CONTINUOUS
 62
     7
100
AcDbCircle
 10
31.848025
 20
223.030215
 30
0.0
 40
16.97
100
AcDbArc
 50
154.142131
 51
-106.129845
  0
ARC
  5
78
100
AcDbEntity
  8
レイヤ_1
  6
CONTINUOUS
 62
     7
100
AcDbCircle
 10
31.848025
 20
223.030215
 30
0.0
 40
16.97
100
AcDbArc
 50
34.129845
 51
133.857869
  0
LINE
  5
79
100
AcDbEntity
  8
レイヤ_1
  6
CONTINUOUS
 62
     7
100
AcDbLine
 10
21.063176
 20
232.428851
 30
0.0
 11
19.576689
 21
230.382877
 31
0.0
  0
LINE
  5
7A
100
AcDbEntity
  8
レイヤ_1
  6
CONTINUOUS
 62
     7
100
AcDbLine
 10
20.089991
 20
235.266616
 30
0.0
 11
21.063176
 21
232.428851
 31
0.0
  0
LINE
  5
7B
100
AcDbEntity
  8
レイヤ_1
  6
CONTINUOUS
 62
     7
100
AcDbLine
 10
16.577083
 20
230.431514
 30
0.0
 11
19.576689
 21
230.382877
 31
0.0
  0
ARC
  5
7C
100
AcDbEntity
  8
レイヤ_1
  6
CONTINUOUS
 62
     7
100
AcDbCircle
 10
83.791372
 20
206.152798
 30
0.0
 40
16.97
100
AcDbArc
 50
-109.870155
 51
-10.142131
  0
ARC
  5
7D
100
AcDbEntity
  8
レイヤ_1
  6
CONTINUOUS
 62
     7
100
AcDbCircle
 10
83.791372
 20
206.152798
 30
0.0
 40
16.97
100
AcDbArc
 50
10.142131
 51
109.870155
  0
LINE
  5
7E
100
AcDbEntity
  8
レイヤ_1
  6
CONTINUOUS
 62
     7
100
AcDbLine
 10
98.040879
 20
207.41728
 30
0.0
 11
98.040879
 21
204.888317
 31
0.0
  0
LINE
  5
7F
100
AcDbEntity
  8
レイヤ_1
  6
CONTINUOUS
 62
     7
100
AcDbLine
 10
100.496199
 20
209.141056
 30
0.0
 11
98.040879
 21
207.41728
 31
0.0
  0
LINE
  5
80
100
AcDbEntity
  8
レイヤ_1
  6
CONTINUOUS
 62
     7
100
AcDbLine
 10
100.496199
 20
203.164541
 30
0.0
 11
98.040879
 21
204.888317
 31
0.0
  0
ARC
  5
81
100
AcDbEntity
  8
レイヤ_1
  6
CONTINUOUS
 62
     7
100
AcDbCircle
 10
63.950779
 20
233.461032
 30
0.0
 40
16.97
100
AcDbArc
 50
82.142131
 51
-178.129845
  0
ARC
  5
82
100
AcDbEntity
  8
レイヤ_1
  6
CONTINUOUS
 62
     7
100
AcDbCircle
 10
63.950779
 20
233.461032
 30
0.0
 40
16.97
100
AcDbArc
 50
-37.870155
 51
61.857869
  0
LINE
  5
83
100
AcDbEntity
  8
レイヤ_1
  6
CONTINUOUS
 62
     7
100
AcDbLine
 10
69.556712
 20
246.622371
 30
0.0
 11
67.151526
 21
247.403864
 31
0.0
  0
LINE
  5
84
100
AcDbEntity
  8
レイヤ_1
  6
CONTINUOUS
 62
     7
100
AcDbLine
 10
71.954856
 20
248.424843
 30
0.0
 11
69.556712
 21
246.622371
 31
0.0
  0
LINE
  5
85
100
AcDbEntity
  8
レイヤ_1
  6
CONTINUOUS
 62
     7
100
AcDbLine
 10
66.270853
 20
250.271688
 30
0.0
 11
67.151526
 21
247.403864
 31
0.0
  0
ARC
  5
86
100
AcDbEntity
  8
レイヤ_1
  6
CONTINUOUS
 62
     7
100
AcDbCircle
 10
63.950779
 20
178.844564
 30
0.0
 40
16.97
100
AcDbArc
 50
-61.857869
 51
37.870155
  0
ARC
  5
87
100
AcDbEntity
  8
レイヤ_1
  6
CONTINUOUS
 62
     7
100
AcDbCircle
 10
63.950779
 20
178.844564
 30
0.0
 40
16.97
100
AcDbArc
 50
178.129845
 51
-82.142131
  0
LINE
  5
88
100
AcDbEntity
  8
レイヤ_1
  6
CONTINUOUS
 62
     7
100
AcDbLine
 10
67.151526
 20
164.901733
 30
0.0
 11
69.556712
 21
165.683225
 31
0.0
  0
LINE
  5
89
100
AcDbEntity
  8
レイヤ_1
  6
CONTINUOUS
 62
     7
100
AcDbLine
 10
66.270853
 20
162.033908
 30
0.0
 11
67.151526
 21
164.901733
 31
0.0
  0
LINE
  5
8A
100
AcDbEntity
  8
レイヤ_1
  6
CONTINUOUS
 62
     7
100
AcDbLine
 10
71.954856
 20
163.880753
 30
0.0
 11
69.556712
 21
165.683225
 31
0.0
  0
ARC
  5
8B
100
AcDbEntity
  8
レイヤ_1
  6
CONTINUOUS
 62
     7
100
AcDbCircle
 10
31.848025
 20
189.275382
 30
0.0
 40
16.97
100
AcDbArc
 50
106.129845
 51
-154.142131
  0
ARC
  5
8C
100
AcDbEntity
  8
レイヤ_1
  6
CONTINUOUS
 62
     7
100
AcDbCircle
 10
31.848025
 20
189.275382
 30
0.0
 40
16.97
100
AcDbArc
 50
-133.857869
 51
-34.129845
  0
LINE
  5
8D
100
AcDbEntity
  8
レイヤ_1
  6
CONTINUOUS
 62
     7
100
AcDbLine
 10
21.063176
 20
179.876745
 30
0.0
 11
19.576689
 21
181.922719
 31
0.0
  0
LINE
  5
8E
100
AcDbEntity
  8
レイヤ_1
  6
CONTINUOUS
 62
     7
100
AcDbLine
 10
20.089991
 20
177.03898
 30
0.0
 11
21.063176
 21
179.876745
 31
0.0
  0
LINE
  5
8F
100
AcDbEntity
  8
レイヤ_1
  6
CONTINUOUS
 62
     7
100
AcDbLine
 10
16.577083
 20
181.874082
 30
0.0
 11
19.576689
 21
181.922719
 31
0.0
  0
LINE
  5
90
100
AcDbEntity
  8
レイヤ_1
  6
CONTINUOUS
 62
     7
100
AcDbLine
 10
47.715829
 20
185.354287
 30
0.0
 11
45.895252
 21
179.75402
 31
0.0
  0
LINE
  5
91
100
AcDbEntity
  8
レイヤ_1
  6
CONTINUOUS
 62
     7
100
AcDbLine
 10
48.810288
 20
184.998308
 30
0.0
 11
46.989818
 21
179.398373
 31
0.0
  0
ARC
  5
92
100
AcDbEntity
  8
レイヤ_1
  6
CONTINUOUS
 62
     7
100
AcDbCircle
 10
47.352371
 20
182.376385
 30
0.0
 40
3.0
100
AcDbArc
 50
60.923815
 51
83.041373
  0
LINE
  5
93
100
AcDbEntity
  8
レイヤ_1
  6
CONTINUOUS
 62
     7
100
AcDbLine
 10
33.022264
 20
205.578245
 30
0.0
 11
27.133504
 21
205.57735
 31
0.0
  0
LINE
  5
94
100
AcDbEntity
  8
レイヤ_1
  6
CONTINUOUS
 62
     7
100
AcDbLine
 10
33.021914
 20
206.72914
 30
0.0
 11
27.133504
 21
206.728246
 31
0.0
  0
ARC
  5
95
100
AcDbEntity
  8
レイヤ_1
  6
CONTINUOUS
 62
     7
100
AcDbCircle
 10
30.077796
 20
206.152798
 30
0.0
 40
3.0
100
AcDbArc
 50
-11.041373
 51
11.076185
  0
LINE
  5
96
100
AcDbEntity
  8
レイヤ_1
  6
CONTINUOUS
 62
     7
100
AcDbLine
 10
47.715829
 20
226.951309
 30
0.0
 11
45.895252
 21
232.551577
 31
0.0
  0
LINE
  5
97
100
AcDbEntity
  8
レイヤ_1
  6
CONTINUOUS
 62
     7
100
AcDbLine
 10
48.810288
 20
227.307288
 30
0.0
 11
46.989818
 21
232.907223
 31
0.0
  0
ARC
  5
98
100
AcDbEntity
  8
レイヤ_1
  6
CONTINUOUS
 62
     7
100
AcDbCircle
 10
47.352371
 20
229.929211
 30
0.0
 40
3.0
100
AcDbArc
 50
-83.041373
 51
-60.923815
  0
LINE
  5
99
100
AcDbEntity
  8
レイヤ_1
  6
CONTINUOUS
 62
     7
100
AcDbLine
 10
72.583383
 20
219.581538
 30
0.0
 11
77.346964
 21
223.043588
 31
0.0
  0
LINE
  5
9A
100
AcDbEntity
  8
レイヤ_1
  6
CONTINUOUS
 62
     7
100
AcDbLine
 10
73.260145
 20
218.65065
 30
0.0
 11
78.023444
 21
222.112494
 31
0.0
  0
ARC
  5
9B
100
AcDbEntity
  8
レイヤ_1
  6
CONTINUOUS
 62
     7
100
AcDbCircle
 10
75.303221
 20
220.847429
 30
0.0
 40
3.0
100
AcDbArc
 50
-155.041373
 51
-132.923815
  0
LINE
  5
9C
100
AcDbEntity
  8
レイヤ_1
  6
CONTINUOUS
 62
     7
100
AcDbLine
 10
73.258811
 20
193.653705
 30
0.0
 11
78.023444
 21
190.193102
 31
0.0
  0
LINE
  5
9D
100
AcDbEntity
  8
レイヤ_1
  6
CONTINUOUS
 62
     7
100
AcDbLine
 10
72.582614
 20
192.722405
 30
0.0
 11
77.346964
 21
189.262008
 31
0.0
  0
ARC
  5
9E
100
AcDbEntity
  8
レイヤ_1
  6
CONTINUOUS
 62
     7
100
AcDbCircle
 10
75.303221
 20
191.458167
 30
0.0
 40
3.0
100
AcDbArc
 50
132.958627
 51
155.076185
  0
INSERT
  5
A7
100
AcDbEntity
  8
レイヤ_3
  6
CONTINUOUS
 62
   214
100
AcDbBlockReference
  2
*G3
 10
0.0
 20
0.0
 30
0.0
  0
ARC
  5
A8
100
AcDbEntity
  8
レイヤ_1
  6
CONTINUOUS
 62
     7
100
AcDbCircle
 10
31.74448
 20
90.423875
 30
0.0
 40
16.97
100
AcDbArc
 50
154.142131
 51
-106.129845
  0
ARC
  5
A9
100
AcDbEntity
  8
レイヤ_1
  6
CONTINUOUS
 62
     7
100
AcDbCircle
 10
31.74448
 20
90.423875
 30
0.0
 40
16.97
100
AcDbArc
 50
34.129845
 51
133.857869
  0
LINE
  5
AA
100
AcDbEntity
  8
レイヤ_1
  6
CONTINUOUS
 62
     7
100
AcDbLine
 10
20.959631
 20
99.822512
 30
0.0
 11
19.473144
 21
97.776538
 31
0.0
  0
LINE
  5
AB
100
AcDbEntity
  8
レイヤ_1
  6
CONTINUOUS
 62
     7
100
AcDbLine
 10
19.986446
 20
102.660277
 30
0.0
 11
20.959631
 21
99.822512
 31
0.0
  0
LINE
  5
AC
100
AcDbEntity
  8
レイヤ_1
  6
CONTINUOUS
 62
     7
100
AcDbLine
 10
16.473539
 20
97.825175
 30
0.0
 11
19.473144
 21
97.776538
 31
0.0
  0
ARC
  5
AD
100
AcDbEntity
  8
レイヤ_1
  6
CONTINUOUS
 62
     7
100
AcDbCircle
 10
83.687828
 20
73.546459
 30
0.0
 40
16.97
100
AcDbArc
 50
-109.870155
 51
-10.142131
  0
ARC
  5
AE
100
AcDbEntity
  8
レイヤ_1
  6
CONTINUOUS
 62
     7
100
AcDbCircle
 10
83.687828
 20
73.546459
 30
0.0
 40
16.97
100
AcDbArc
 50
10.142131
 51
109.870155
  0
LINE
  5
AF
100
AcDbEntity
  8
レイヤ_1
  6
CONTINUOUS
 62
     7
100
AcDbLine
 10
97.937334
 20
74.81094
 30
0.0
 11
97.937334
 21
72.281977
 31
0.0
  0
LINE
  5
B0
100
AcDbEntity
  8
レイヤ_1
  6
CONTINUOUS
 62
     7
100
AcDbLine
 10
100.392654
 20
76.534716
 30
0.0
 11
97.937334
 21
74.81094
 31
0.0
  0
LINE
  5
B1
100
AcDbEntity
  8
レイヤ_1
  6
CONTINUOUS
 62
     7
100
AcDbLine
 10
100.392654
 20
70.558201
 30
0.0
 11
97.937334
 21
72.281977
 31
0.0
  0
ARC
  5
B2
100
AcDbEntity
  8
レイヤ_1
  6
CONTINUOUS
 62
     7
100
AcDbCircle
 10
63.847234
 20
100.854692
 30
0.0
 40
16.97
100
AcDbArc
 50
82.142131
 51
-178.129845
  0
ARC
  5
B3
100
AcDbEntity
  8
レイヤ_1
  6
CONTINUOUS
 62
     7
100
AcDbCircle
 10
63.847234
 20
100.854692
 30
0.0
 40
16.97
100
AcDbArc
 50
-37.870155
 51
61.857869
  0
LINE
  5
B4
100
AcDbEntity
  8
レイヤ_1
  6
CONTINUOUS
 62
     7
100
AcDbLine
 10
69.453167
 20
114.016032
 30
0.0
 11
67.047981
 21
114.797524
 31
0.0
  0
LINE
  5
B5
100
AcDbEntity
  8
レイヤ_1
  6
CONTINUOUS
 62
     7
100
AcDbLine
 10
71.851311
 20
115.818504
 30
0.0
 11
69.453167
 21
114.016032
 31
0.0
  0
LINE
  5
B6
100
AcDbEntity
  8
レイヤ_1
  6
CONTINUOUS
 62
     7
100
AcDbLine
 10
66.167308
 20
117.665349
 30
0.0
 11
67.047981
 21
114.797524
 31
0.0
  0
ARC
  5
B7
100
AcDbEntity
  8
レイヤ_1
  6
CONTINUOUS
 62
     7
100
AcDbCircle
 10
63.847234
 20
46.238225
 30
0.0
 40
16.97
100
AcDbArc
 50
-61.857869
 51
37.870155
  0
ARC
  5
B8
100
AcDbEntity
  8
レイヤ_1
  6
CONTINUOUS
 62
     7
100
AcDbCircle
 10
63.847234
 20
46.238225
 30
0.0
 40
16.97
100
AcDbArc
 50
178.129845
 51
-82.142131
  0
LINE
  5
B9
100
AcDbEntity
  8
レイヤ_1
  6
CONTINUOUS
 62
     7
100
AcDbLine
 10
67.047981
 20
32.295393
 30
0.0
 11
69.453167
 21
33.076886
 31
0.0
  0
LINE
  5
BA
100
AcDbEntity
  8
レイヤ_1
  6
CONTINUOUS
 62
     7
100
AcDbLine
 10
66.167308
 20
29.427569
 30
0.0
 11
67.047981
 21
32.295393
 31
0.0
  0
LINE
  5
BB
100
AcDbEntity
  8
レイヤ_1
  6
CONTINUOUS
 62
     7
100
AcDbLine
 10
71.851311
 20
31.274414
 30
0.0
 11
69.453167
 21
33.076886
 31
0.0
  0
ARC
  5
BC
100
AcDbEntity
  8
レイヤ_1
  6
CONTINUOUS
 62
     7
100
AcDbCircle
 10
31.74448
 20
56.669042
 30
0.0
 40
16.97
100
AcDbArc
 50
106.129845
 51
-154.142131
  0
ARC
  5
BD
100
AcDbEntity
  8
レイヤ_1
  6
CONTINUOUS
 62
     7
100
AcDbCircle
 10
31.74448
 20
56.669042
 30
0.0
 40
16.97
100
AcDbArc
 50
-133.857869
 51
-34.129845
  0
LINE
  5
BE
100
AcDbEntity
  8
レイヤ_1
  6
CONTINUOUS
 62
     7
100
AcDbLine
 10
20.959631
 20
47.270406
 30
0.0
 11
19.473144
 21
49.31638
 31
0.0
  0
LINE
  5
BF
100
AcDbEntity
  8
レイヤ_1
  6
CONTINUOUS
 62
     7
100
AcDbLine
 10
19.986446
 20
44.432641
 30
0.0
 11
20.959631
 21
47.270406
 31
0.0
  0
LINE
  5
C0
100
AcDbEntity
  8
レイヤ_1
  6
CONTINUOUS
 62
     7
100
AcDbLine
 10
16.473539
 20
49.267743
 30
0.0
 11
19.473144
 21
49.31638
 31
0.0
  0
LINE
  5
C1
100
AcDbEntity
  8
レイヤ_1
  6
CONTINUOUS
 62
     7
100
AcDbLine
 10
47.612284
 20
52.747948
 30
0.0
 11
45.791707
 21
47.14768
 31
0.0
  0
LINE
  5
C2
100
AcDbEntity
  8
レイヤ_1
  6
CONTINUOUS
 62
     7
100
AcDbLine
 10
48.706743
 20
52.391969
 30
0.0
 11
46.886274
 21
46.792034
 31
0.0
  0
ARC
  5
C3
100
AcDbEntity
  8
レイヤ_1
  6
CONTINUOUS
 62
     7
100
AcDbCircle
 10
47.248827
 20
49.770046
 30
0.0
 40
3.0
100
AcDbArc
 50
60.923815
 51
83.041373
  0
LINE
  5
C4
100
AcDbEntity
  8
レイヤ_1
  6
CONTINUOUS
 62
     7
100
AcDbLine
 10
32.918719
 20
72.971906
 30
0.0
 11
27.029959
 21
72.971011
 31
0.0
  0
LINE
  5
C5
100
AcDbEntity
  8
レイヤ_1
  6
CONTINUOUS
 62
     7
100
AcDbLine
 10
32.918369
 20
74.122801
 30
0.0
 11
27.029959
 21
74.121907
 31
0.0
  0
ARC
  5
C6
100
AcDbEntity
  8
レイヤ_1
  6
CONTINUOUS
 62
     7
100
AcDbCircle
 10
29.974251
 20
73.546459
 30
0.0
 40
3.0
100
AcDbArc
 50
-11.041373
 51
11.076185
  0
LINE
  5
C7
100
AcDbEntity
  8
レイヤ_1
  6
CONTINUOUS
 62
     7
100
AcDbLine
 10
47.612284
 20
94.34497
 30
0.0
 11
45.791707
 21
99.945237
 31
0.0
  0
LINE
  5
C8
100
AcDbEntity
  8
レイヤ_1
  6
CONTINUOUS
 62
     7
100
AcDbLine
 10
48.706743
 20
94.700949
 30
0.0
 11
46.886274
 21
100.300884
 31
0.0
  0
ARC
  5
C9
100
AcDbEntity
  8
レイヤ_1
  6
CONTINUOUS
 62
     7
100
AcDbCircle
 10
47.248827
 20
97.322872
 30
0.0
 40
3.0
100
AcDbArc
 50
-83.041373
 51
-60.923815
  0
LINE
  5
CA
100
AcDbEntity
  8
レイヤ_1
  6
CONTINUOUS
 62
     7
100
AcDbLine
 10
72.479838
 20
86.975199
 30
0.0
 11
77.243419
 21
90.437249
 31
0.0
  0
LINE
  5
CB
100
AcDbEntity
  8
レイヤ_1
  6
CONTINUOUS
 62
     7
100
AcDbLine
 10
73.1566
 20
86.04431
 30
0.0
 11
77.919899
 21
89.506155
 31
0.0
  0
ARC
  5
CC
100
AcDbEntity
  8
レイヤ_1
  6
CONTINUOUS
 62
     7
100
AcDbCircle
 10
75.199676
 20
88.24109
 30
0.0
 40
3.0
100
AcDbArc
 50
-155.041373
 51
-132.923815
  0
LINE
  5
CD
100
AcDbEntity
  8
レイヤ_1
  6
CONTINUOUS
 62
     7
100
AcDbLine
 10
73.155266
 20
61.047366
 30
0.0
 11
77.919899
 21
57.586763
 31
0.0
  0
LINE
  5
CE
100
AcDbEntity
  8
レイヤ_1
  6
CONTINUOUS
 62
     7
100
AcDbLine
 10
72.47907
 20
60.116066
 30
0.0
 11
77.243419
 21
56.655669
 31
0.0
  0
ARC
  5
CF
100
AcDbEntity
  8
レイヤ_1
  6
CONTINUOUS
 62
     7
100
AcDbCircle
 10
75.199676
 20
58.851828
 30
0.0
 40
3.0
100
AcDbArc
 50
132.958627
 51
155.076185
  0
ENDSEC
  0
SECTION
  2
OBJECTS
  0
DICTIONARY
  5
19
100
AcDbDictionary
  3
ACAD_GROUP
350
1A
  3
ACAD_MLINESTYLE
350
1B
  0
DICTIONARY
  5
1A
102
{ACAD_REACTORS
330
19
102
}
100
AcDbDictionary
  0
DICTIONARY
  5
1B
102
{ACAD_REACTORS
330
19
102
}
100
AcDbDictionary
  3
STANDARD
350
1C
  0
MLINESTYLE
  5
1C
102
{ACAD_REACTORS
330
1B
102
}
100
AcDbMlineStyle
  2
STANDARD
 70
     0
  3

 62
     0
 51
90.0
 52
90.0
 71
     2
 49
0.5
 62
   256
  6
BYLAYER
 49
-0.5
 62
   256
  6
BYLAYER
  0
ENDSEC
  0
EOF
