  0
SECTION
  2
HEADER
  9
$ACADVER
  1
AC1014
  9
$ACADMAINTVER
 70
     0
  9
$DWGCODEPAGE
  3
DOS932
  9
$INSBASE
 10
0.0
 20
0.0
 30
0.0
  9
$EXTMIN
 10
0.0
 20
0.0
 30
0.0
  9
$EXTMAX
 10
210.0
 20
297.0
 30
0.0
  9
$LIMMIN
 10
0.0
 20
0.0
  9
$LIMMAX
 10
210.0
 20
297.0
  9
$ORTHOMODE
 70
     0
  9
$REGENMODE
 70
     1
  9
$FILLMODE
 70
     1
  9
$QTEXTMODE
 70
     0
  9
$MIRRTEXT
 70
     1
  9
$DRAGMODE
 70
     2
  9
$LTSCALE
 40
0.25
  9
$OSMODE
 70
     0
  9
$ATTMODE
 70
     1
  9
$TEXTSIZE
 40
5.0
  9
$TRACEWID
 40
0.05
  9
$TEXTSTYLE
  7
STANDARD
  9
$CLAYER
  8
0
  9
$CELTYPE
  6
CONTINUOUS
  9
$CECOLOR
 62
   256
  9
$CELTSCALE
 40
1.0
  9
$DELOBJ
 70
     1
  9
$DISPSILH
 70
     0
  9
$DIMSCALE
 40
1.0
  9
$DIMASZ
 40
4.0
  9
$DIMEXO
 40
2.0
  9
$DIMDLI
 40
10.0
  9
$DIMRND
 40
0.0
  9
$DIMDLE
 40
0.0
  9
$DIMEXE
 40
2.0
  9
$DIMTP
 40
0.0
  9
$DIMTM
 40
0.0
  9
$DIMTXT
 40
4.0
  9
$DIMCEN
 40
0.09
  9
$DIMTSZ
 40
0.0
  9
$DIMTOL
 70
     0
  9
$DIMLIM
 70
     0
  9
$DIMTIH
 70
     0
  9
$DIMTOH
 70
     0
  9
$DIMSE1
 70
     0
  9
$DIMSE2
 70
     0
  9
$DIMTAD
 70
     3
  9
$DIMZIN
 70
     0
  9
$DIMBLK
  1

  9
$DIMASO
 70
     1
  9
$DIMSHO
 70
     1
  9
$DIMPOST
  1

  9
$DIMAPOST
  1

  9
$DIMALT
 70
     0
  9
$DIMALTD
 70
     2
  9
$DIMALTF
 40
25.4
  9
$DIMLFAC
 40
1.0
  9
$DIMTOFL
 70
     1
  9
$DIMTVP
 40
0.7
  9
$DIMTIX
 70
     0
  9
$DIMSOXD
 70
     0
  9
$DIMSAH
 70
     0
  9
$DIMBLK1
  1

  9
$DIMBLK2
  1

  9
$DIMSTYLE
  2
STANDARD
  9
$DIMCLRD
 70
     0
  9
$DIMCLRE
 70
     0
  9
$DIMCLRT
 70
     0
  9
$DIMTFAC
 40
0.5
  9
$DIMGAP
 40
0.0
  9
$DIMJUST
 70
     0
  9
$DIMSD1
 70
     0
  9
$DIMSD2
 70
     0
  9
$DIMTOLJ
 70
     1
  9
$DIMTZIN
 70
     0
  9
$DIMALTZ
 70
     0
  9
$DIMALTTZ
 70
     0
  9
$DIMFIT
 70
     3
  9
$DIMUPT
 70
     0
  9
$DIMUNIT
 70
     2
  9
$DIMDEC
 70
     2
  9
$DIMTDEC
 70
     4
  9
$DIMALTU
 70
     2
  9
$DIMALTTD
 70
     2
  9
$DIMTXSTY
  7
STANDARD
  9
$DIMAUNIT
 70
     0
  9
$LUNITS
 70
     2
  9
$LUPREC
 70
     4
  9
$SKETCHINC
 40
0.1
  9
$FILLETRAD
 40
0.0
  9
$AUNITS
 70
     0
  9
$AUPREC
 70
     0
  9
$MENU
  1
acad
  9
$ELEVATION
 40
0.0
  9
$PELEVATION
 40
0.0
  9
$THICKNESS
 40
0.0
  9
$LIMCHECK
 70
     0
  9
$BLIPMODE
 70
     1
  9
$CHAMFERA
 40
0.0
  9
$CHAMFERB
 40
0.0
  9
$CHAMFERC
 40
0.0
  9
$CHAMFERD
 40
0.0
  9
$SKPOLY
 70
     0
  9
$TDCREATE
 40
2453561.855439815
  9
$TDUPDATE
 40
2453561.855439815
  9
$TDINDWG
 40
0.0000000000
  9
$TDUSRTIMER
 40
0.0000000000
  9
$USRTIMER
 70
     1
  9
$ANGBASE
 50
0.0
  9
$ANGDIR
 70
     0
  9
$PDMODE
 70
     0
  9
$PDSIZE
 40
0.0
  9
$PLINEWID
 40
0.0
  9
$COORDS
 70
     0
  9
$SPLFRAME
 70
     0
  9
$SPLINETYPE
 70
     6
  9
$SPLINESEGS
 70
     8
  9
$ATTDIA
 70
     0
  9
$ATTREQ
 70
     1
  9
$HANDLING
 70
     1
  9
$HANDSEED
  5
A9
  9
$SURFTAB1
 70
     6
  9
$SURFTAB2
 70
     6
  9
$SURFTYPE
 70
     6
  9
$SURFU
 70
     6
  9
$SURFV
 70
     6
  9
$UCSNAME
  2

  9
$UCSORG
 10
0.0
 20
0.0
 30
0.0
  9
$UCSXDIR
 10
1.0
 20
0.0
 30
0.0
  9
$UCSYDIR
 10
0.0
 20
1.0
 30
0.0
  9
$PUCSNAME
  2

  9
$PUCSORG
 10
0.0
 20
0.0
 30
0.0
  9
$PUCSXDIR
 10
1.0
 20
0.0
 30
0.0
  9
$PUCSYDIR
 10
0.0
 20
1.0
 30
0.0
  9
$USERI1
 70
     0
  9
$USERI2
 70
     0
  9
$USERI3
 70
     0
  9
$USERI4
 70
     0
  9
$USERI5
 70
     0
  9
$USERR1
 40
0.0
  9
$USERR2
 40
0.0
  9
$USERR3
 40
0.0
  9
$USERR4
 40
0.0
  9
$USERR5
 40
0.0
  9
$WORLDVIEW
 70
     1
  9
$SHADEDGE
 70
     3
  9
$SHADEDIF
 70
    70
  9
$TILEMODE
 70
     1
  9
$MAXACTVP
 70
    16
  9
$PINSBASE
 10
0.0
 20
0.0
 30
0.0
  9
$PLIMCHECK
 70
     0
  9
$PEXTMIN
 10
0.0
 20
0.0
 30
0.0
  9
$PEXTMAX
 10
210.0
 20
297.0
 30
0.0
  9
$PLIMMIN
 10
0.0
 20
0.0
  9
$PLIMMAX
 10
210.0
 20
297.0
  9
$UNITMODE
 70
     0
  9
$VISRETAIN
 70
     0
  9
$PLINEGEN
 70
     1
  9
$PSLTSCALE
 70
     0
  9
$TREEDEPTH
 70
  3020
  9
$PICKSTYLE
 70
     1
  9
$CMLSTYLE
  2
STANDARD
  9
$CMLJUST
 70
     0
  9
$CMLSCALE
 40
1.0
  9
$PROXYGRAPHICS
 70
     0
  9
$MEASUREMENT
 70
     0
  0
ENDSEC
  0
SECTION
  2
CLASSES
  0
CLASS
  1
LWPOLYLINE
  2
AcDbPolyline
  3
"AutoCAD"
 90
        0
280
     0
281
     1
  0
CLASS
  1
IMAGE
  2
AcDbRasterImage
  3
ISM
 90
      127
280
     0
281
     1
  0
CLASS
  1
OLE2FRAME
  2
AcDbOle2Frame
  3
""
 90
        0
280
     0
281
     1
  0
CLASS
  1
HATCH
  2
AcDbHatch
  3
"ACAD_SEDONA"
 90
        0
280
     0
281
     1
  0
CLASS
  1
DICTIONARYVAR
  2
AcDbDictionaryVar
  3
"AutoCAD"
 90
        0
280
     0
281
     0
  0
CLASS
  1
RASTERVARIABLES
  2
AcDbRasterVariables
  3
ISM
 90
        0
280
     0
281
     0
  0
CLASS
  1
IMAGEDEF
  2
AcDbRasterImageDef
  3
ISM
 90
        0
280
     0
281
     0
  0
CLASS
  1
IMAGEDEF_REACTOR
  2
AcDbRasterImageDefReactor
  3
ISM
 90
        1
280
     0
281
     0
  0
CLASS
  1
IDBUFFER
  2
AcDbIdBuffer
  3
"Acad"
 90
        0
280
     0
281
     0
  0
CLASS
  1
SPATIAL_FILTER
  2
AcDbSpatialFilter
  3
"Acad"
 90
        0
280
     0
281
     0
  0
CLASS
  1
XRECORD
  2
AcDbXrecord
  3
"<Built In>"
 90
        0
280
     0
281
     0
  0
CLASS
  1
SORTENTSTABLE
  2
AcDbSortentsTable
  3
"AutoCAD"
 90
        0
280
     0
281
     0
  0
CLASS
  1
LAYER_INDEX
  2
AcDbLayerIndex
  3
"Acad"
 90
        0
280
     0
281
     0
  0
CLASS
  1
SPATIAL_INDEX
  2
AcDbSpatialIndex
  3
"Acad"
 90
        0
280
     0
281
     0
  0
CLASS
  1
OBJECT_PTR
  2
CAseDLPNTableRecord
  3
"ASE-LPNTableRecord"
 90
        1
280
     0
281
     0
  0
CLASS
  1
LAYOUT
  2
AcDbLayout
  3
"AutoCAD 2000"
 90
        1
280
     0
281
     0
  0
CLASS
  1
PLOTSETTINGS
  2
AcDbPlotSettings
  3
"AutoCAD 2000"
 90
        1
280
     0
281
     0
  0
CLASS
  1
ACDBDICTIONARYWDFLT
  2
AcDbDictionaryWithDefault
  3
"AutoCAD 2000"
 90
        1
280
     0
281
     0
  0
CLASS
  1
ACDBPLACEHOLDER
  2
AcDbPlaceHolder
  3
"AutoCAD 2000"
 90
        1
280
     0
281
     0
  0
CLASS
  1
VBA_PROJECT
  2
AcDbVbaProject
  3
"acadvba"
 90
        1
280
     0
281
     0
  0
CLASS
  1
WIPEOUT
  2
AcDbWipeout
  3
WipeOut|AutoCAD Express Tool|expresstools@autodesk.com
 90
      127
280
     0
281
     1
  0
CLASS
  1
WIPEOUTVARIABLES
  2
AcDbWipeoutVariables
  3
WipeOut|AutoCAD Express Tool|expresstools@autodesk.com
 90
        0
280
     0
281
     0
  0
CLASS
  1
RTEXT
  2
RText
  3
RText|AutoCAD Express Tool|expresstools@autodesk.com
 90
        0
280
     0
281
     1
  0
CLASS
  1
ARCALIGNEDTEXT
  2
AcDbArcAlignedText
  3
ATEXT|AutoCAD Express Tool|expresstools@autodesk.com
 90
        0
280
     0
281
     1
  0
ENDSEC
  0
SECTION
  2
TABLES
  0
TABLE
  2
VPORT
  5
7
100
AcDbSymbolTable
 70
     1
  0
VPORT
  5
15
100
AcDbSymbolTableRecord
100
AcDbViewportTableRecord
  2
*ACTIVE
 70
     0
 10
0.0
 20
0.0
 11
1.0
 21
1.0
 12
6.591288
 22
4.579184
 13
0.0
 23
0.0
 14
1.0
 24
1.0
 15
0.0
 25
0.0
 16
0.0
 26
0.0
 36
1.0
 17
0.0
 27
0.0
 37
0.0
 40
9.158369
 41
0.688564
 42
50.0
 43
0.0
 44
0.0
 50
0.0
 51
0.0
 71
     0
 72
   100
 73
     1
 74
     1
 75
     0
 76
     0
 77
     0
 78
     0
  0
ENDTAB
  0
TABLE
  2
LTYPE
  5
4
100
AcDbSymbolTable
 70
     9
  0
LTYPE
  5
11
100
AcDbSymbolTableRecord
100
AcDbLinetypeTableRecord
  2
BYBLOCK
 70
    64
  3

 72
    65
 73
     0
 40
0.0
  0
LTYPE
  5
12
100
AcDbSymbolTableRecord
100
AcDbLinetypeTableRecord
  2
BYLAYER
 70
    64
  3

 72
    65
 73
     0
 40
0.0
  0
LTYPE
  5
13
100
AcDbSymbolTableRecord
100
AcDbLinetypeTableRecord
  2
CONTINUOUS
 70
    64
  3
Solid line
 72
    65
 73
     0
 40
0.0
  0
LTYPE
  5
1E
100
AcDbSymbolTableRecord
100
AcDbLinetypeTableRecord
  2
HIDDEN
 70
    64
  3
- - - - - - - - 
 72
    65
 73
     2
 40
12.6
 49
8.4
 74
     0
 49
-4.2
 74
     0
  0
LTYPE
  5
1F
100
AcDbSymbolTableRecord
100
AcDbLinetypeTableRecord
  2
DOT
 70
    64
  3
･ ･ ･ ･ ･ ･ ･ ･ 
 72
    65
 73
     2
 40
8.0
 49
6.0
 74
     0
 49
-2.0
 74
     0
  0
LTYPE
  5
20
100
AcDbSymbolTableRecord
100
AcDbLinetypeTableRecord
  2
CENTER
 70
    64
  3
- ･ - ･ - ･ - ･ 
 72
    65
 73
     4
 40
50.5
 49
30.0
 74
     0
 49
-9.0
 74
     0
 49
2.5
 74
     0
 49
-9.0
 74
     0
  0
LTYPE
  5
21
100
AcDbSymbolTableRecord
100
AcDbLinetypeTableRecord
  2
PHANTOM
 70
    64
  3
- ･･ - ･･ - ･･ - ･･ 
 72
    65
 73
     6
 40
58.0
 49
30.0
 74
     0
 49
-9.0
 74
     0
 49
2.5
 74
     0
 49
-5.0
 74
     0
 49
2.5
 74
     0
 49
-9.0
 74
     0
  0
LTYPE
  5
22
100
AcDbSymbolTableRecord
100
AcDbLinetypeTableRecord
  2
ACAD_ISO06W100
 70
    64
  3
____ ... ____ ... ____
 72
    65
 73
     8
 40
37.5
 49
24.0
 74
     0
 49
-3.0
 74
     0
 49
0.5
 74
     0
 49
-3.0
 74
     0
 49
0.5
 74
     0
 49
-3.0
 74
     0
 49
0.5
 74
     0
 49
-3.0
 74
     0
  0
LTYPE
  5
23
100
AcDbSymbolTableRecord
100
AcDbLinetypeTableRecord
  2
ACAD_ISO14W100
 70
    64
  3
__ . . . __ . . . __ . . . 
 72
    65
 73
     8
 40
25.5
 49
12.0
 74
     0
 49
-3.0
 74
     0
 49
0.5
 74
     0
 49
-3.0
 74
     0
 49
0.5
 74
     0
 49
-3.0
 74
     0
 49
0.5
 74
     0
 49
-3.0
 74
     0
  0
ENDTAB
  0
TABLE
  2
LAYER
  5
2
100
AcDbSymbolTable
 70
    22
  0
LAYER
  5
14
100
AcDbSymbolTableRecord
100
AcDbLayerTableRecord
  2
0
 70
     0
 62
     7
  6
CONTINUOUS
  0
LAYER
  5
24
100
AcDbSymbolTableRecord
100
AcDbLayerTableRecord
  2
レイヤ_1
 70
     0
 62
     7
  6
CONTINUOUS
  0
LAYER
  5
25
100
AcDbSymbolTableRecord
100
AcDbLayerTableRecord
  2
レイヤ_2
 70
     0
 62
   134
  6
CONTINUOUS
  0
LAYER
  5
26
100
AcDbSymbolTableRecord
100
AcDbLayerTableRecord
  2
レイヤ_3
 70
     0
 62
   214
  6
CONTINUOUS
  0
LAYER
  5
27
100
AcDbSymbolTableRecord
100
AcDbLayerTableRecord
  2
レイヤ_4
 70
     0
 62
    54
  6
CONTINUOUS
  0
LAYER
  5
28
100
AcDbSymbolTableRecord
100
AcDbLayerTableRecord
  2
レイヤ_5
 70
     0
 62
    94
  6
CONTINUOUS
  0
LAYER
  5
29
100
AcDbSymbolTableRecord
100
AcDbLayerTableRecord
  2
レイヤ_6
 70
     0
 62
    14
  6
CONTINUOUS
  0
LAYER
  5
2A
100
AcDbSymbolTableRecord
100
AcDbLayerTableRecord
  2
レイヤ_7
 70
     0
 62
     4
  6
CONTINUOUS
  0
LAYER
  5
2B
100
AcDbSymbolTableRecord
100
AcDbLayerTableRecord
  2
レイヤ_8
 70
     0
 62
     6
  6
CONTINUOUS
  0
LAYER
  5
2C
100
AcDbSymbolTableRecord
100
AcDbLayerTableRecord
  2
レイヤ_9
 70
     0
 62
     2
  6
CONTINUOUS
  0
LAYER
  5
2D
100
AcDbSymbolTableRecord
100
AcDbLayerTableRecord
  2
レイヤ10
 70
     0
 62
     3
  6
CONTINUOUS
  0
LAYER
  5
2E
100
AcDbSymbolTableRecord
100
AcDbLayerTableRecord
  2
レイヤ11
 70
     0
 62
   251
  6
CONTINUOUS
  0
LAYER
  5
2F
100
AcDbSymbolTableRecord
100
AcDbLayerTableRecord
  2
レイヤ12
 70
     0
 62
   136
  6
CONTINUOUS
  0
LAYER
  5
30
100
AcDbSymbolTableRecord
100
AcDbLayerTableRecord
  2
レイヤ13
 70
     0
 62
   216
  6
CONTINUOUS
  0
LAYER
  5
31
100
AcDbSymbolTableRecord
100
AcDbLayerTableRecord
  2
レイヤ14
 70
     0
 62
    56
  6
CONTINUOUS
  0
LAYER
  5
32
100
AcDbSymbolTableRecord
100
AcDbLayerTableRecord
  2
レイヤ15
 70
     0
 62
    96
  6
CONTINUOUS
  0
LAYER
  5
33
100
AcDbSymbolTableRecord
100
AcDbLayerTableRecord
  2
レイヤ16
 70
     0
 62
    16
  6
CONTINUOUS
  0
LAYER
  5
34
100
AcDbSymbolTableRecord
100
AcDbLayerTableRecord
  2
レイヤ17
 70
     0
 62
   132
  6
CONTINUOUS
  0
LAYER
  5
35
100
AcDbSymbolTableRecord
100
AcDbLayerTableRecord
  2
レイヤ18
 70
     0
 62
   212
  6
CONTINUOUS
  0
LAYER
  5
36
100
AcDbSymbolTableRecord
100
AcDbLayerTableRecord
  2
レイヤ19
 70
     0
 62
    52
  6
CONTINUOUS
  0
LAYER
  5
37
100
AcDbSymbolTableRecord
100
AcDbLayerTableRecord
  2
レイヤ20
 70
     0
 62
   250
  6
CONTINUOUS
  0
LAYER
  5
38
100
AcDbSymbolTableRecord
100
AcDbLayerTableRecord
  2
その他
 70
     0
 62
     7
  6
CONTINUOUS
  0
ENDTAB
  0
TABLE
  2
STYLE
  5
3
100
AcDbSymbolTable
 70
     2
  0
STYLE
  5
17
100
AcDbSymbolTableRecord
100
AcDbTextStyleTableRecord
  2
STANDARD
 70
     0
 40
0.0
 41
1.0
 50
0.0
 71
     0
 42
0.0
  3
txt
  4
bigfont
  0
STYLE
  5
1D
100
AcDbSymbolTableRecord
100
AcDbTextStyleTableRecord
  2
T_STANDARD
 70
    68
 40
10.0
 41
1.0
 50
0.0
 71
     0
 42
10.0
  3
txt
  4
bigfont
  0
ENDTAB
  0
TABLE
  2
VIEW
  5
5
100
AcDbSymbolTable
 70
     0
  0
ENDTAB
  0
TABLE
  2
UCS
  5
6
100
AcDbSymbolTable
 70
     0
  0
ENDTAB
  0
TABLE
  2
APPID
  5
8
100
AcDbSymbolTable
 70
     1
  0
APPID
  5
16
100
AcDbSymbolTableRecord
100
AcDbRegAppTableRecord
  2
ACAD
 70
     0
  0
ENDTAB
  0
TABLE
  2
DIMSTYLE
  5
9
100
AcDbSymbolTable
 70
     1
  0
DIMSTYLE
105
18
100
AcDbSymbolTableRecord
100
AcDbDimStyleTableRecord
  2
STANDARD
 70
     0
  3

  4

  5

  6

  7

 40
1.0
 41
0.18
 42
0.0625
 43
0.38
 44
0.18
 45
0.0
 46
0.0
 47
0.0
 48
0.0
 71
     0
 72
     0
 73
     1
 74
     1
 75
     0
 76
     0
 77
     0
 78
     0
140
0.18
141
0.09
142
0.0
143
25.4
144
1.0
145
0.0
146
1.0
147
0.09
170
     0
171
     2
172
     0
173
     0
174
     0
175
     0
176
     0
177
     0
178
     0
270
     2
271
     4
272
     4
273
     2
274
     2
275
     0
280
     0
281
     0
282
     0
283
     1
284
     0
285
     0
286
     0
287
     0
288
     0
340
17
  0
ENDTAB
  0
TABLE
  2
BLOCK_RECORD
  5
1
100
AcDbSymbolTable
 70
     3
  0
BLOCK_RECORD
  5
A
100
AcDbSymbolTableRecord
100
AcDbBlockTableRecord
  2
*MODEL_SPACE
  0
BLOCK_RECORD
  5
B
100
AcDbSymbolTableRecord
100
AcDbBlockTableRecord
  2
*PAPER_SPACE
  0
BLOCK_RECORD
  5
39
100
AcDbSymbolTableRecord
100
AcDbBlockTableRecord
  2
*G0
  0
BLOCK_RECORD
  5
3D
100
AcDbSymbolTableRecord
100
AcDbBlockTableRecord
  2
*G1
  0
BLOCK_RECORD
  5
73
100
AcDbSymbolTableRecord
100
AcDbBlockTableRecord
  2
*G2
  0
ENDTAB
  0
ENDSEC
  0
SECTION
  2
BLOCKS
  0
BLOCK
  5
D
100
AcDbEntity
  8
0
100
AcDbBlockBegin
  2
*MODEL_SPACE
 70
     0
 10
0.0
 20
0.0
 30
0.0
  3
*MODEL_SPACE
  1

  0
ENDBLK
  5
E
100
AcDbEntity
  8
0
100
AcDbBlockEnd
  0
BLOCK
  5
F
100
AcDbEntity
 67
     1
  8
0
100
AcDbBlockBegin
  2
*PAPER_SPACE
 70
     0
 10
0.0
 20
0.0
 30
0.0
  3
*PAPER_SPACE
  1

  0
ENDBLK
  5
10
100
AcDbEntity
 67
     1
  8
0
100
AcDbBlockEnd
  0
BLOCK
  5
3A
100
AcDbEntity
  8
0
  6
CONTINUOUS
 62
     7
100
AcDbBlockBegin
  2
*G0
 70
     0
 10
0.0
 20
0.0
 30
0.0
  3
*G0
  1

  0
ENDBLK
  5
3B
100
AcDbEntity
  8
0
100
AcDbBlockEnd
  0
BLOCK
  5
3E
100
AcDbEntity
  8
レイヤ_3
  6
CONTINUOUS
 62
   214
100
AcDbBlockBegin
  2
*G1
 70
     0
 10
0.0
 20
0.0
 30
0.0
  3
*G1
  1

  0
LINE
  5
3F
100
AcDbEntity
  8
レイヤ_1
  6
CONTINUOUS
 62
     7
100
AcDbLine
 10
110.0
 20
261.803399
 30
0.0
 11
51.221475
 21
219.098301
 31
0.0
  0
LINE
  5
40
100
AcDbEntity
  8
レイヤ_1
  6
CONTINUOUS
 62
     7
100
AcDbLine
 10
51.221475
 20
219.098301
 30
0.0
 11
73.672874
 21
150.0
 31
0.0
  0
LINE
  5
41
100
AcDbEntity
  8
レイヤ_1
  6
CONTINUOUS
 62
     7
100
AcDbLine
 10
73.672874
 20
150.0
 30
0.0
 11
146.327126
 21
150.0
 31
0.0
  0
LINE
  5
42
100
AcDbEntity
  8
レイヤ_1
  6
CONTINUOUS
 62
     7
100
AcDbLine
 10
146.327126
 20
150.0
 30
0.0
 11
168.778525
 21
219.098301
 31
0.0
  0
LINE
  5
43
100
AcDbEntity
  8
レイヤ_1
  6
CONTINUOUS
 62
     7
100
AcDbLine
 10
168.778525
 20
219.098301
 30
0.0
 11
110.0
 21
261.803399
 31
0.0
  0
ENDBLK
  5
44
100
AcDbEntity
  8
0
100
AcDbBlockEnd
  0
BLOCK
  5
74
100
AcDbEntity
  8
レイヤ_3
  6
CONTINUOUS
 62
   214
100
AcDbBlockBegin
  2
*G2
 70
     0
 10
0.0
 20
0.0
 30
0.0
  3
*G2
  1

  0
LINE
  5
75
100
AcDbEntity
  8
レイヤ_1
  6
CONTINUOUS
 62
     7
100
AcDbLine
 10
110.0
 20
131.803399
 30
0.0
 11
51.221475
 21
89.098301
 31
0.0
  0
LINE
  5
76
100
AcDbEntity
  8
レイヤ_1
  6
CONTINUOUS
 62
     7
100
AcDbLine
 10
51.221475
 20
89.098301
 30
0.0
 11
73.672874
 21
20.0
 31
0.0
  0
LINE
  5
77
100
AcDbEntity
  8
レイヤ_1
  6
CONTINUOUS
 62
     7
100
AcDbLine
 10
73.672874
 20
20.0
 30
0.0
 11
146.327126
 21
20.0
 31
0.0
  0
LINE
  5
78
100
AcDbEntity
  8
レイヤ_1
  6
CONTINUOUS
 62
     7
100
AcDbLine
 10
146.327126
 20
20.0
 30
0.0
 11
168.778525
 21
89.098301
 31
0.0
  0
LINE
  5
79
100
AcDbEntity
  8
レイヤ_1
  6
CONTINUOUS
 62
     7
100
AcDbLine
 10
168.778525
 20
89.098301
 30
0.0
 11
110.0
 21
131.803399
 31
0.0
  0
ENDBLK
  5
7A
100
AcDbEntity
  8
0
100
AcDbBlockEnd
  0
ENDSEC
  0
SECTION
  2
ENTITIES
  0
INSERT
  5
3C
100
AcDbEntity
  8
0
  6
CONTINUOUS
 62
     7
100
AcDbBlockReference
  2
*G0
 10
0.0
 20
0.0
 30
0.0
  0
INSERT
  5
45
100
AcDbEntity
  8
レイヤ_3
  6
CONTINUOUS
 62
   214
100
AcDbBlockReference
  2
*G1
 10
0.0
 20
0.0
 30
0.0
  0
ARC
  5
46
100
AcDbEntity
  8
レイヤ_1
  6
CONTINUOUS
 62
     7
100
AcDbCircle
 10
93.122583
 20
176.770229
 30
0.0
 40
16.97
100
AcDbArc
 50
-115.857869
 51
-16.129845
  0
ARC
  5
47
100
AcDbEntity
  8
レイヤ_1
  6
CONTINUOUS
 62
     7
100
AcDbCircle
 10
93.122583
 20
176.770229
 30
0.0
 40
16.97
100
AcDbArc
 50
124.129845
 51
-136.142131
  0
LINE
  5
48
100
AcDbEntity
  8
レイヤ_1
  6
CONTINUOUS
 62
     7
100
AcDbLine
 10
86.174307
 20
189.27498
 30
0.0
 11
86.223587
 21
192.274575
 31
0.0
  0
LINE
  5
49
100
AcDbEntity
  8
レイヤ_1
  6
CONTINUOUS
 62
     7
100
AcDbLine
 10
83.601221
 20
190.817455
 30
0.0
 11
86.174307
 21
189.27498
 31
0.0
  0
LINE
  5
4A
100
AcDbEntity
  8
レイヤ_1
  6
CONTINUOUS
 62
     7
100
AcDbLine
 10
83.723947
 20
165.98538
 30
0.0
 11
85.769921
 21
164.498893
 31
0.0
  0
LINE
  5
4B
100
AcDbEntity
  8
レイヤ_1
  6
CONTINUOUS
 62
     7
100
AcDbLine
 10
80.886182
 20
165.012194
 30
0.0
 11
83.723947
 21
165.98538
 31
0.0
  0
LINE
  5
4C
100
AcDbEntity
  8
レイヤ_1
  6
CONTINUOUS
 62
     7
100
AcDbLine
 10
85.721284
 20
161.499287
 30
0.0
 11
85.769921
 21
164.498893
 31
0.0
  0
LINE
  5
4D
100
AcDbEntity
  8
レイヤ_1
  6
CONTINUOUS
 62
     7
100
AcDbLine
 10
107.162444
 20
174.026206
 30
0.0
 11
110.0
 21
175.0
 31
0.0
  0
LINE
  5
4E
100
AcDbEntity
  8
レイヤ_1
  6
CONTINUOUS
 62
     7
100
AcDbLine
 10
109.424552
 20
172.055707
 30
0.0
 11
107.162444
 21
174.026206
 31
0.0
  0
ARC
  5
4F
100
AcDbEntity
  8
レイヤ_1
  6
CONTINUOUS
 62
     7
100
AcDbCircle
 10
110.0
 20
228.713576
 30
0.0
 40
16.97
100
AcDbArc
 50
-19.870155
 51
79.857869
  0
ARC
  5
50
100
AcDbEntity
  8
レイヤ_1
  6
CONTINUOUS
 62
     7
100
AcDbCircle
 10
110.0
 20
228.713576
 30
0.0
 40
16.97
100
AcDbArc
 50
100.142131
 51
-160.129845
  0
LINE
  5
51
100
AcDbEntity
  8
レイヤ_1
  6
CONTINUOUS
 62
     7
100
AcDbLine
 10
97.028618
 20
222.681114
 30
0.0
 11
95.305369
 21
220.225425
 31
0.0
  0
LINE
  5
52
100
AcDbEntity
  8
レイヤ_1
  6
CONTINUOUS
 62
     7
100
AcDbLine
 10
94.040304
 20
222.945647
 30
0.0
 11
97.028618
 21
222.681114
 31
0.0
  0
LINE
  5
53
100
AcDbEntity
  8
レイヤ_1
  6
CONTINUOUS
 62
     7
100
AcDbLine
 10
108.735519
 20
242.963082
 30
0.0
 11
111.264481
 21
242.963082
 31
0.0
  0
LINE
  5
54
100
AcDbEntity
  8
レイヤ_1
  6
CONTINUOUS
 62
     7
100
AcDbLine
 10
107.011743
 20
245.418402
 30
0.0
 11
108.735519
 21
242.963082
 31
0.0
  0
LINE
  5
55
100
AcDbEntity
  8
レイヤ_1
  6
CONTINUOUS
 62
     7
100
AcDbLine
 10
112.988257
 20
245.418402
 30
0.0
 11
111.264481
 21
242.963082
 31
0.0
  0
LINE
  5
56
100
AcDbEntity
  8
レイヤ_1
  6
CONTINUOUS
 62
     7
100
AcDbLine
 10
122.971382
 20
222.681114
 30
0.0
 11
124.694631
 21
220.225425
 31
0.0
  0
LINE
  5
57
100
AcDbEntity
  8
レイヤ_1
  6
CONTINUOUS
 62
     7
100
AcDbLine
 10
125.959696
 20
222.945647
 30
0.0
 11
122.971382
 21
222.681114
 31
0.0
  0
ARC
  5
58
100
AcDbEntity
  8
レイヤ_1
  6
CONTINUOUS
 62
     7
100
AcDbCircle
 10
82.691766
 20
208.872983
 30
0.0
 40
16.97
100
AcDbArc
 50
172.142131
 51
-88.129845
  0
ARC
  5
59
100
AcDbEntity
  8
レイヤ_1
  6
CONTINUOUS
 62
     7
100
AcDbCircle
 10
82.691766
 20
208.872983
 30
0.0
 40
16.97
100
AcDbArc
 50
52.129845
 51
151.857869
  0
LINE
  5
5A
100
AcDbEntity
  8
レイヤ_1
  6
CONTINUOUS
 62
     7
100
AcDbLine
 10
92.437356
 20
219.345367
 30
0.0
 11
95.305369
 21
220.225425
 31
0.0
  0
LINE
  5
5B
100
AcDbEntity
  8
レイヤ_1
  6
CONTINUOUS
 62
     7
100
AcDbLine
 10
93.10921
 20
222.269168
 30
0.0
 11
92.437356
 21
219.345367
 31
0.0
  0
LINE
  5
5C
100
AcDbEntity
  8
レイヤ_1
  6
CONTINUOUS
 62
     7
100
AcDbLine
 10
69.530427
 20
214.478916
 30
0.0
 11
68.748934
 21
212.073729
 31
0.0
  0
LINE
  5
5D
100
AcDbEntity
  8
レイヤ_1
  6
CONTINUOUS
 62
     7
100
AcDbLine
 10
67.727955
 20
216.87706
 30
0.0
 11
69.530427
 21
214.478916
 31
0.0
  0
LINE
  5
5E
100
AcDbEntity
  8
レイヤ_1
  6
CONTINUOUS
 62
     7
100
AcDbLine
 10
65.88111
 20
211.193056
 30
0.0
 11
68.748934
 21
212.073729
 31
0.0
  0
LINE
  5
5F
100
AcDbEntity
  8
レイヤ_1
  6
CONTINUOUS
 62
     7
100
AcDbLine
 10
84.420601
 20
194.672333
 30
0.0
 11
86.223587
 21
192.274575
 31
0.0
  0
LINE
  5
60
100
AcDbEntity
  8
レイヤ_1
  6
CONTINUOUS
 62
     7
100
AcDbLine
 10
83.245575
 20
191.912022
 30
0.0
 11
84.420601
 21
194.672333
 31
0.0
  0
ARC
  5
61
100
AcDbEntity
  8
レイヤ_1
  6
CONTINUOUS
 62
     7
100
AcDbCircle
 10
137.308234
 20
208.872983
 30
0.0
 40
16.97
100
AcDbArc
 50
28.142131
 51
127.870155
  0
ARC
  5
62
100
AcDbEntity
  8
レイヤ_1
  6
CONTINUOUS
 62
     7
100
AcDbCircle
 10
137.308234
 20
208.872983
 30
0.0
 40
16.97
100
AcDbArc
 50
-91.870155
 51
7.857869
  0
LINE
  5
63
100
AcDbEntity
  8
レイヤ_1
  6
CONTINUOUS
 62
     7
100
AcDbLine
 10
151.251066
 20
212.073729
 30
0.0
 11
150.469573
 21
214.478916
 31
0.0
  0
LINE
  5
64
100
AcDbEntity
  8
レイヤ_1
  6
CONTINUOUS
 62
     7
100
AcDbLine
 10
154.11889
 20
211.193056
 30
0.0
 11
151.251066
 21
212.073729
 31
0.0
  0
LINE
  5
65
100
AcDbEntity
  8
レイヤ_1
  6
CONTINUOUS
 62
     7
100
AcDbLine
 10
152.272045
 20
216.87706
 30
0.0
 11
150.469573
 21
214.478916
 31
0.0
  0
LINE
  5
66
100
AcDbEntity
  8
レイヤ_1
  6
CONTINUOUS
 62
     7
100
AcDbLine
 10
127.562644
 20
219.345367
 30
0.0
 11
124.694631
 21
220.225425
 31
0.0
  0
LINE
  5
67
100
AcDbEntity
  8
レイヤ_1
  6
CONTINUOUS
 62
     7
100
AcDbLine
 10
126.89079
 20
222.269168
 30
0.0
 11
127.562644
 21
219.345367
 31
0.0
  0
ARC
  5
68
100
AcDbEntity
  8
レイヤ_1
  6
CONTINUOUS
 62
     7
100
AcDbCircle
 10
126.877417
 20
176.770229
 30
0.0
 40
16.97
100
AcDbArc
 50
-163.870155
 51
-64.142131
  0
ARC
  5
69
100
AcDbEntity
  8
レイヤ_1
  6
CONTINUOUS
 62
     7
100
AcDbCircle
 10
126.877417
 20
176.770229
 30
0.0
 40
16.97
100
AcDbArc
 50
-43.857869
 51
55.870155
  0
LINE
  5
6A
100
AcDbEntity
  8
レイヤ_1
  6
CONTINUOUS
 62
     7
100
AcDbLine
 10
136.276053
 20
165.98538
 30
0.0
 11
134.230079
 21
164.498893
 31
0.0
  0
LINE
  5
6B
100
AcDbEntity
  8
レイヤ_1
  6
CONTINUOUS
 62
     7
100
AcDbLine
 10
139.113818
 20
165.012194
 30
0.0
 11
136.276053
 21
165.98538
 31
0.0
  0
LINE
  5
6C
100
AcDbEntity
  8
レイヤ_1
  6
CONTINUOUS
 62
     7
100
AcDbLine
 10
134.278716
 20
161.499287
 30
0.0
 11
134.230079
 21
164.498893
 31
0.0
  0
LINE
  5
6D
100
AcDbEntity
  8
レイヤ_1
  6
CONTINUOUS
 62
     7
100
AcDbLine
 10
112.837556
 20
174.026206
 30
0.0
 11
110.0
 21
175.0
 31
0.0
  0
LINE
  5
6E
100
AcDbEntity
  8
レイヤ_1
  6
CONTINUOUS
 62
     7
100
AcDbLine
 10
110.575448
 20
172.055707
 30
0.0
 11
112.837556
 21
174.026206
 31
0.0
  0
LINE
  5
6F
100
AcDbEntity
  8
レイヤ_1
  6
CONTINUOUS
 62
     7
100
AcDbLine
 10
135.579399
 20
194.672333
 30
0.0
 11
133.776413
 21
192.274575
 31
0.0
  0
LINE
  5
70
100
AcDbEntity
  8
レイヤ_1
  6
CONTINUOUS
 62
     7
100
AcDbLine
 10
136.754425
 20
191.912022
 30
0.0
 11
135.579399
 21
194.672333
 31
0.0
  0
LINE
  5
71
100
AcDbEntity
  8
レイヤ_1
  6
CONTINUOUS
 62
     7
100
AcDbLine
 10
133.825693
 20
189.27498
 30
0.0
 11
133.776413
 21
192.274575
 31
0.0
  0
LINE
  5
72
100
AcDbEntity
  8
レイヤ_1
  6
CONTINUOUS
 62
     7
100
AcDbLine
 10
136.398779
 20
190.817455
 30
0.0
 11
133.825693
 21
189.27498
 31
0.0
  0
INSERT
  5
7B
100
AcDbEntity
  8
レイヤ_3
  6
CONTINUOUS
 62
   214
100
AcDbBlockReference
  2
*G2
 10
0.0
 20
0.0
 30
0.0
  0
ARC
  5
7C
100
AcDbEntity
  8
レイヤ_1
  6
CONTINUOUS
 62
     7
100
AcDbCircle
 10
93.122583
 20
46.770229
 30
0.0
 40
16.97
100
AcDbArc
 50
-115.857869
 51
-16.129845
  0
ARC
  5
7D
100
AcDbEntity
  8
レイヤ_1
  6
CONTINUOUS
 62
     7
100
AcDbCircle
 10
93.122583
 20
46.770229
 30
0.0
 40
16.97
100
AcDbArc
 50
124.129845
 51
-136.142131
  0
LINE
  5
7E
100
AcDbEntity
  8
レイヤ_1
  6
CONTINUOUS
 62
     7
100
AcDbLine
 10
86.174307
 20
59.27498
 30
0.0
 11
86.223587
 21
62.274575
 31
0.0
  0
LINE
  5
7F
100
AcDbEntity
  8
レイヤ_1
  6
CONTINUOUS
 62
     7
100
AcDbLine
 10
83.601221
 20
60.817455
 30
0.0
 11
86.174307
 21
59.27498
 31
0.0
  0
LINE
  5
80
100
AcDbEntity
  8
レイヤ_1
  6
CONTINUOUS
 62
     7
100
AcDbLine
 10
83.723947
 20
35.98538
 30
0.0
 11
85.769921
 21
34.498893
 31
0.0
  0
LINE
  5
81
100
AcDbEntity
  8
レイヤ_1
  6
CONTINUOUS
 62
     7
100
AcDbLine
 10
80.886182
 20
35.012194
 30
0.0
 11
83.723947
 21
35.98538
 31
0.0
  0
LINE
  5
82
100
AcDbEntity
  8
レイヤ_1
  6
CONTINUOUS
 62
     7
100
AcDbLine
 10
85.721284
 20
31.499287
 30
0.0
 11
85.769921
 21
34.498893
 31
0.0
  0
LINE
  5
83
100
AcDbEntity
  8
レイヤ_1
  6
CONTINUOUS
 62
     7
100
AcDbLine
 10
107.162444
 20
44.026206
 30
0.0
 11
110.0
 21
45.0
 31
0.0
  0
LINE
  5
84
100
AcDbEntity
  8
レイヤ_1
  6
CONTINUOUS
 62
     7
100
AcDbLine
 10
109.424552
 20
42.055707
 30
0.0
 11
107.162444
 21
44.026206
 31
0.0
  0
ARC
  5
85
100
AcDbEntity
  8
レイヤ_1
  6
CONTINUOUS
 62
     7
100
AcDbCircle
 10
110.0
 20
98.713576
 30
0.0
 40
16.97
100
AcDbArc
 50
-19.870155
 51
79.857869
  0
ARC
  5
86
100
AcDbEntity
  8
レイヤ_1
  6
CONTINUOUS
 62
     7
100
AcDbCircle
 10
110.0
 20
98.713576
 30
0.0
 40
16.97
100
AcDbArc
 50
100.142131
 51
-160.129845
  0
LINE
  5
87
100
AcDbEntity
  8
レイヤ_1
  6
CONTINUOUS
 62
     7
100
AcDbLine
 10
97.028618
 20
92.681114
 30
0.0
 11
95.305369
 21
90.225425
 31
0.0
  0
LINE
  5
88
100
AcDbEntity
  8
レイヤ_1
  6
CONTINUOUS
 62
     7
100
AcDbLine
 10
94.040304
 20
92.945647
 30
0.0
 11
97.028618
 21
92.681114
 31
0.0
  0
LINE
  5
89
100
AcDbEntity
  8
レイヤ_1
  6
CONTINUOUS
 62
     7
100
AcDbLine
 10
108.735519
 20
112.963082
 30
0.0
 11
111.264481
 21
112.963082
 31
0.0
  0
LINE
  5
8A
100
AcDbEntity
  8
レイヤ_1
  6
CONTINUOUS
 62
     7
100
AcDbLine
 10
107.011743
 20
115.418402
 30
0.0
 11
108.735519
 21
112.963082
 31
0.0
  0
LINE
  5
8B
100
AcDbEntity
  8
レイヤ_1
  6
CONTINUOUS
 62
     7
100
AcDbLine
 10
112.988257
 20
115.418402
 30
0.0
 11
111.264481
 21
112.963082
 31
0.0
  0
LINE
  5
8C
100
AcDbEntity
  8
レイヤ_1
  6
CONTINUOUS
 62
     7
100
AcDbLine
 10
122.971382
 20
92.681114
 30
0.0
 11
124.694631
 21
90.225425
 31
0.0
  0
LINE
  5
8D
100
AcDbEntity
  8
レイヤ_1
  6
CONTINUOUS
 62
     7
100
AcDbLine
 10
125.959696
 20
92.945647
 30
0.0
 11
122.971382
 21
92.681114
 31
0.0
  0
ARC
  5
8E
100
AcDbEntity
  8
レイヤ_1
  6
CONTINUOUS
 62
     7
100
AcDbCircle
 10
82.691766
 20
78.872983
 30
0.0
 40
16.97
100
AcDbArc
 50
172.142131
 51
-88.129845
  0
ARC
  5
8F
100
AcDbEntity
  8
レイヤ_1
  6
CONTINUOUS
 62
     7
100
AcDbCircle
 10
82.691766
 20
78.872983
 30
0.0
 40
16.97
100
AcDbArc
 50
52.129845
 51
151.857869
  0
LINE
  5
90
100
AcDbEntity
  8
レイヤ_1
  6
CONTINUOUS
 62
     7
100
AcDbLine
 10
92.437356
 20
89.345367
 30
0.0
 11
95.305369
 21
90.225425
 31
0.0
  0
LINE
  5
91
100
AcDbEntity
  8
レイヤ_1
  6
CONTINUOUS
 62
     7
100
AcDbLine
 10
93.10921
 20
92.269168
 30
0.0
 11
92.437356
 21
89.345367
 31
0.0
  0
LINE
  5
92
100
AcDbEntity
  8
レイヤ_1
  6
CONTINUOUS
 62
     7
100
AcDbLine
 10
69.530427
 20
84.478916
 30
0.0
 11
68.748934
 21
82.073729
 31
0.0
  0
LINE
  5
93
100
AcDbEntity
  8
レイヤ_1
  6
CONTINUOUS
 62
     7
100
AcDbLine
 10
67.727955
 20
86.87706
 30
0.0
 11
69.530427
 21
84.478916
 31
0.0
  0
LINE
  5
94
100
AcDbEntity
  8
レイヤ_1
  6
CONTINUOUS
 62
     7
100
AcDbLine
 10
65.88111
 20
81.193056
 30
0.0
 11
68.748934
 21
82.073729
 31
0.0
  0
LINE
  5
95
100
AcDbEntity
  8
レイヤ_1
  6
CONTINUOUS
 62
     7
100
AcDbLine
 10
84.420601
 20
64.672333
 30
0.0
 11
86.223587
 21
62.274575
 31
0.0
  0
LINE
  5
96
100
AcDbEntity
  8
レイヤ_1
  6
CONTINUOUS
 62
     7
100
AcDbLine
 10
83.245575
 20
61.912022
 30
0.0
 11
84.420601
 21
64.672333
 31
0.0
  0
ARC
  5
97
100
AcDbEntity
  8
レイヤ_1
  6
CONTINUOUS
 62
     7
100
AcDbCircle
 10
137.308234
 20
78.872983
 30
0.0
 40
16.97
100
AcDbArc
 50
28.142131
 51
127.870155
  0
ARC
  5
98
100
AcDbEntity
  8
レイヤ_1
  6
CONTINUOUS
 62
     7
100
AcDbCircle
 10
137.308234
 20
78.872983
 30
0.0
 40
16.97
100
AcDbArc
 50
-91.870155
 51
7.857869
  0
LINE
  5
99
100
AcDbEntity
  8
レイヤ_1
  6
CONTINUOUS
 62
     7
100
AcDbLine
 10
151.251066
 20
82.073729
 30
0.0
 11
150.469573
 21
84.478916
 31
0.0
  0
LINE
  5
9A
100
AcDbEntity
  8
レイヤ_1
  6
CONTINUOUS
 62
     7
100
AcDbLine
 10
154.11889
 20
81.193056
 30
0.0
 11
151.251066
 21
82.073729
 31
0.0
  0
LINE
  5
9B
100
AcDbEntity
  8
レイヤ_1
  6
CONTINUOUS
 62
     7
100
AcDbLine
 10
152.272045
 20
86.87706
 30
0.0
 11
150.469573
 21
84.478916
 31
0.0
  0
LINE
  5
9C
100
AcDbEntity
  8
レイヤ_1
  6
CONTINUOUS
 62
     7
100
AcDbLine
 10
127.562644
 20
89.345367
 30
0.0
 11
124.694631
 21
90.225425
 31
0.0
  0
LINE
  5
9D
100
AcDbEntity
  8
レイヤ_1
  6
CONTINUOUS
 62
     7
100
AcDbLine
 10
126.89079
 20
92.269168
 30
0.0
 11
127.562644
 21
89.345367
 31
0.0
  0
ARC
  5
9E
100
AcDbEntity
  8
レイヤ_1
  6
CONTINUOUS
 62
     7
100
AcDbCircle
 10
126.877417
 20
46.770229
 30
0.0
 40
16.97
100
AcDbArc
 50
-163.870155
 51
-64.142131
  0
ARC
  5
9F
100
AcDbEntity
  8
レイヤ_1
  6
CONTINUOUS
 62
     7
100
AcDbCircle
 10
126.877417
 20
46.770229
 30
0.0
 40
16.97
100
AcDbArc
 50
-43.857869
 51
55.870155
  0
LINE
  5
A0
100
AcDbEntity
  8
レイヤ_1
  6
CONTINUOUS
 62
     7
100
AcDbLine
 10
136.276053
 20
35.98538
 30
0.0
 11
134.230079
 21
34.498893
 31
0.0
  0
LINE
  5
A1
100
AcDbEntity
  8
レイヤ_1
  6
CONTINUOUS
 62
     7
100
AcDbLine
 10
139.113818
 20
35.012194
 30
0.0
 11
136.276053
 21
35.98538
 31
0.0
  0
LINE
  5
A2
100
AcDbEntity
  8
レイヤ_1
  6
CONTINUOUS
 62
     7
100
AcDbLine
 10
134.278716
 20
31.499287
 30
0.0
 11
134.230079
 21
34.498893
 31
0.0
  0
LINE
  5
A3
100
AcDbEntity
  8
レイヤ_1
  6
CONTINUOUS
 62
     7
100
AcDbLine
 10
112.837556
 20
44.026206
 30
0.0
 11
110.0
 21
45.0
 31
0.0
  0
LINE
  5
A4
100
AcDbEntity
  8
レイヤ_1
  6
CONTINUOUS
 62
     7
100
AcDbLine
 10
110.575448
 20
42.055707
 30
0.0
 11
112.837556
 21
44.026206
 31
0.0
  0
LINE
  5
A5
100
AcDbEntity
  8
レイヤ_1
  6
CONTINUOUS
 62
     7
100
AcDbLine
 10
135.579399
 20
64.672333
 30
0.0
 11
133.776413
 21
62.274575
 31
0.0
  0
LINE
  5
A6
100
AcDbEntity
  8
レイヤ_1
  6
CONTINUOUS
 62
     7
100
AcDbLine
 10
136.754425
 20
61.912022
 30
0.0
 11
135.579399
 21
64.672333
 31
0.0
  0
LINE
  5
A7
100
AcDbEntity
  8
レイヤ_1
  6
CONTINUOUS
 62
     7
100
AcDbLine
 10
133.825693
 20
59.27498
 30
0.0
 11
133.776413
 21
62.274575
 31
0.0
  0
LINE
  5
A8
100
AcDbEntity
  8
レイヤ_1
  6
CONTINUOUS
 62
     7
100
AcDbLine
 10
136.398779
 20
60.817455
 30
0.0
 11
133.825693
 21
59.27498
 31
0.0
  0
ENDSEC
  0
SECTION
  2
OBJECTS
  0
DICTIONARY
  5
19
100
AcDbDictionary
  3
ACAD_GROUP
350
1A
  3
ACAD_MLINESTYLE
350
1B
  0
DICTIONARY
  5
1A
102
{ACAD_REACTORS
330
19
102
}
100
AcDbDictionary
  0
DICTIONARY
  5
1B
102
{ACAD_REACTORS
330
19
102
}
100
AcDbDictionary
  3
STANDARD
350
1C
  0
MLINESTYLE
  5
1C
102
{ACAD_REACTORS
330
1B
102
}
100
AcDbMlineStyle
  2
STANDARD
 70
     0
  3

 62
     0
 51
90.0
 52
90.0
 71
     2
 49
0.5
 62
   256
  6
BYLAYER
 49
-0.5
 62
   256
  6
BYLAYER
  0
ENDSEC
  0
EOF
